Song name
# A B C D E F G H I J K L M N O P Q R S T U V W X Y Z

The Sainte Catherines - Id Rather Be Part Of The Dying Bungee Scene tab

intro:                     verse
e-------------------------------------------------------------------|
b-------------------------------------------------------------------|
g------------57-----------------------------------------------------|
d-------323--57-----X4------77777777--33-x2--77777777---------------|
a-------323--35-------------77777777--33-----77777777---------------|
E-------101-----------------55555555--11-----55555555---------------|

e------------------------------------------------------------------------------|
b------------------------------------------------------------------------------|
g---7777-5555-3333333----------------------------7777-5555-333333/-------------|
d---7777-5555-3333333--77777777-33-x2-77777777---7777-5555-333333/-------------|
a---5555-3333-1111111--77777777-33----77777777---5555-3333-111111/-------------|
E----------------------55555555-11----55555555---------------------------------|
chorus                                                     bridge
e----------------------------------------------------------------------------|
b----------------------------------------------------------------------------|
g-7777777--5555555-3333333-555555-33333333-55555555----------757-----x2------|
d-7777777--5555555-3333333-555555-33333333-55555555-7777/8---757-88----------|
a-5555555--3333333-1111111-333333-11111111-33333333-7777/8---535-88----------|
E---------------------------------------------------5555/6-------66----------|
verse

chorus x2

bridge

bass solo

intro

bridge2
e-----------------------------------------------|
b-----------------------------------------------|
g---77777-99999999999/--------------------------|
d---77777-99999999999/--------------------------|
a---55555-77777777777/--------------------------|
E-----------------------------------------------|
 chorus x2

bridge
Tap to rate this tab
 
# A B C D E F G H I J K L M N O P Q R S T U V W X Y Z