Song name
# A B C D E F G H I J K L M N O P Q R S T U V W X Y Z

The Sainte Catherines - Confession Of A Revolution Bourgeois Part 3 tab

They are the first Montreal band to get signed to Fat Wreck Chords.

Link to their offical site: http://www.thesaintecatherines.org/index.php

-------------------------------------------------------------------------------
     Confession Of A Revolution Bourgeois, Part 3 - The Sainte Catherines
-------------------------------------------------------------------------------
Tabbed by: Adam Lenning
Email: a_wilhelm_scream@hotmail.com

They have three guitarists in the band, and this tab is for only the lead guitar.

Tuning: Standard

Listen to the song for exact timing, they strum really fast in certain parts so i'm only 
down an estimate, not the exact number of times you hit each chord.

Intro: up and down strokes
e|-------------------------------------------------------------------------|
B|-------------------------------------------------------------------------|
G|-11-------1212-1414141414141414-1212121212121212-999999-77-101010101010--|
D|-x--(14x)-x-x--x-x-x-x-x-x-x-x--x-x-x-x-x-x-x-x--xxxxxx-xx-x-x-x-x-x-x---|
A|-9--------1010-1212121212121212-1010101010101010-777777-55-8-8-8-8-8-8---|
E|-------------------------------------------------------------------------|

e|----------------------------------------------|
B|----------------------------------------------|
G|-1212-14141414141414-12121212121212-77777777--|
D|-x-x--x-x-x-x-x-x-x--x-x-x-x-x-x-x--xxxxxxxx--|
A|-1010-12121212121212-10101010101010-55555555--|
E|----------------------------------------------|

Verse: (0:18)
e|-----------------------------------------|
B|-----------------------------------------|
G|-----1010------44-----55555555-44444444--|
D|-77--1010--66--44-xxx-55555555-44444444--|
A|-77--8-8---66--22-xxx-33333333-22222222--|
E|-55--------44-----xxx--------------------|

e|-------------------------------------------------------------|
B|-------------------------------------------------------------|
G|-----1010------44-----55555555-99999999-77-1010101010101010--|
D|-77--1010--66--44-xxx-55555555-99999999-77-1010101010101010--|
A|-77--8-8---66--22-xxx-33333333-77777777-55-8-8-8-8-8-8-8-8---|
E|-55--------44-----xxx----------------------------------------|

Chorus: (0:36)
e|----------------------------------------------------------------|
B|----------------------------------------------------------------|
G|-1212-1414141414141414-1212121212121212-999999-77-101010101010--|
D|-x-x--x-x-x-x-x-x-x-x--x-x-x-x-x-x-x-x--xxxxxx-xx-x-x-x-x-x-x---|
A|-1010-1212121212121212-1010101010101010-777777-55-8-8-8-8-8-8---|
E|----------------------------------------------------------------|

e|----------------------------------------------|
B|----------------------------------------------|
G|-1212-14141414141414-12121212121212-77777777--|
D|-x-x--x-x-x-x-x-x-x--x-x-x-x-x-x-x--xxxxxxxx--|
A|-1010-12121212121212-10101010101010-55555555--|
E|----------------------------------------------|

Verse: (0:51)
e|-----------------------------------------|
B|-----------------------------------------|
G|-----1010------44-----55555555-44444444--|
D|-77--1010--66--44-xxx-55555555-44444444--|
A|-77--8-8---66--22-xxx-33333333-22222222--|
E|-55--------44-----xxx--------------------|

e|-------------------------------------------------------------|
B|-------------------------------------------------------------|
G|-----1010------44-----55555555-99999999-77-1010101010101010--|
D|-77--1010--66--44-xxx-55555555-99999999-77-1010101010101010--|
A|-77--8-8---66--22-xxx-33333333-77777777-55-8-8-8-8-8-8-8-8---|
E|-55--------44-----xxx----------------------------------------|

Chorus: (1:09)
e|----------------------------------------------------------------|
B|----------------------------------------------------------------|
G|-1212-1414141414141414-1212121212121212-999999-77-101010101010--|
D|-x-x--x-x-x-x-x-x-x-x--x-x-x-x-x-x-x-x--xxxxxx-xx-x-x-x-x-x-x---|
A|-1010-1212121212121212-1010101010101010-777777-55-8-8-8-8-8-8---|
E|----------------------------------------------------------------|

e|----------------------------------------------|
B|----------------------------------------------|
G|-1212-14141414141414-12121212121212-77777777--|
D|-x-x--x-x-x-x-x-x-x--x-x-x-x-x-x-x--xxxxxxxx--|
A|-1010-12121212121212-10101010101010-55555555--|
E|----------------------------------------------|

Bridge: (1:23)
e|------------------------------------------------------------|
B|-10-8---8-10-8------------------------10-8------------------|
G|------9--------9-7-9-7---------------------9-7-9-7----------|
D|-----------------------10-9-10-9-7-----------------10-9-7~--|
A|-----------------------------------10-----------------------|
E|------------------------------------------------------------|

e|-------------------------------------------------------------|
B|-10-8---8-10-8------------------------10-8---8-10-8---8-10~--|
G|------9--------9-7-9-7---------------------9--------9--------|
D|-----------------------10-9-10-9-7---------------------------|
A|-----------------------------------10------------------------|
E|-------------------------------------------------------------|

e|-------------------------------------------------------------------|
B|-------------------------------------------------------------------|
G|-14\12~-12-9~-9\7~-4/5~-14\12~-12-9-12\9/12/13-9-1414141414141414--|
D|-x-\x---x--x--x\x--x/x--x-\x---x--x-x--x-x--x--x-x-x-x-x-x-x-x-x---|
A|-12\10~-10-7~-7\5~-2/3~-12\10~-10-7-10\7/10/11-7-1212121212121212--|
E|-------------------------------------------------------------------|

Chorus: (1:58)
e|----------------------------------------------------------------|
B|----------------------------------------------------------------|
G|-1212-1717171717171717-1212121212121212-999999-77-101010101010--|
D|-x-x--x-x-x-x-x-x-x-x--x-x-x-x-x-x-x-x--xxxxxx-xx-x-x-x-x-x-x---|
A|-1010-1515151515151515-1010101010101010-777777-55-8-8-8-8-8-8---|
E|----------------------------------------------------------------|

e|----------------------------------------------|
B|----------------------------------------------|
G|-1212-14141414141414-12121212121212-77777777--|
D|-x-x--x-x-x-x-x-x-x--x-x-x-x-x-x-x--xxxxxxxx--|
A|-1010-12121212121212-10101010101010-55555555--|
E|----------------------------------------------|

Outro: (2:13)
e|------------------------------------------------------------|
B|-10-8---8-10-8------------------------10-8------------------|
G|------9--------9-7-9-7---------------------9-7-9-7----------|
D|-----------------------10-9-10-9-7-----------------10-9-7~--|
A|-----------------------------------10-----------------------|
E|------------------------------------------------------------|

e|----------------------------------------------------------------|
B|-10-8---8-10-8------------------------10-8---8-10-8---8-10~-10--|
G|------9--------9-7-9-7---------------------9--------9-----------|
D|-----------------------10-9-10-9-7------------------------------|
A|-----------------------------------10---------------------------|
E|----------------------------------------------------------------|

| /  slide up
| \  slide down
| h  hammer-on
| p  pull-off
| ~  let ring
| x  Mute note

Great song, great Montreal band, lets see some more of their tabs on this site.
===============================================================================
Tap to rate this tab
# A B C D E F G H I J K L M N O P Q R S T U V W X Y Z