Song name
# A B C D E F G H I J K L M N O P Q R S T U V W X Y Z

The Samuel Jackson Five - Person Most Likely To Enjoy The Taste Of Human Flesh tab

E ||----------------------------------------------------------------------------|
B ||-0--------------------------------------------------------------------------|
G ||o------------0-----------------------------------------------0--------------|
D ||o------------------------2-----------2--------------------------------------|
A ||-------------------------------------------------------------------------2--|
E ||----------------------------------------------------------------------------|


--------------------------------------------------------------------------------|
---------------------------------------------------------3h-5-------------------|
---------------------0----------------------------------------------------------|
--------------------------------------------------------------------------------|
---------------------------------3----------------------------------------------|
--------------------------------------------------------------------------------|


------------------------------------------|
----3-------------------------------------|
----------------------------4L------------|
------------------------------------------|
------------------------------------------|
------------------------------------------|


--------------------------------------------------------------------------------|
--------------------------------------------------------------------------------|
--4-----------------------------------------------0-----------------------------|
--------------0-----------------------------------------------------------------|
--------------------------2-----------------------------------3-----------------|
--------------------------------------------------------------------------------|


--------------------------------------------------------------------------------|
--------------------------------------------------------------------------------|
------0--------------------------------------0----------------------------------|
--------------------------------------------------------------------------------|
------------------3h-6-----------------------------------7----------------------|
--------------------------------------------------------------------------------|


--|||
--|||
-o|||
-o|||
--|||
--|||
Tap to rate this tab
 
# A B C D E F G H I J K L M N O P Q R S T U V W X Y Z