The Saturdays - Ego tab

This is the riff and can best be heard on the live lounge 6 copy of the song

1st way of playing
e----------------------------|
B---3--3-2-2--2-3---2--------|
G----4------------4----------|
D-----5----------------------|
A----------------------------|
E----------------------------|

2nd way
e----------------------------|
B---3--3----------3----------|
G----4---6-6---6---6-4-6-----|
D-----5----------------------|
A----------------------------|
E----------------------------|


If you want to strum the song and encorporate the riff, just play this:

   Bm     G     A                Bm (repeat)

e--2-2---3-3---0-0--0------------2-----|
B--3-3---3-3---2-2--2-3p-2---2---3-----|
G--4-4---4-4---2-2--2------4-----4-----|
D--4-4---5-5---2-2--2------------4-----|
A--2-2---5-5---0-0--0------------2-----|
E--------3-3---------------------------|



jameswale@hotmail.com
Tap to rate this tab
 
# A B C D E F G H I J K L M N O P Q R S T U V W X Y Z