Song name
# A B C D E F G H I J K L M N O P Q R S T U V W X Y Z

The Saturdays - Beggin Live tab

Guitar Intro
e |-----------10-12-------12---|--13-------13-------10s-----|--8------------|
B |--------10-------10---------|-----10---------------------|---------------|
G |-----10-------------10------|--------10-------10---------|---------------|
D |--12----------11-------11---|--10-------10-9-------------|----------7----|
A |----------------------------|----------------------------|---------------|
E |----------------------------|----------------------------|---------------|


e |--------------6---6h8p6------------|--------------5----------5----------||
B |----------6---------------6--------|----------5--------------5----------||
G |------7-----------------------7----|------6------------------6----------||
D |--8--------------------------------|--7----------------------7----------||
A |-----------------------------------|------------------------------------||
E |-----------------------------------|------------------------------------||


Chords
    Dm                                   A#
e |--5-----5----5--5--5---5-----------|--6-----6----6--6--6---6-------------|
B |--6-----6----6--6--6---6-----------|--6-----6----6--6--6---6-------------|
G |--7-----7----7--7--7---7-----------|--7-----7----7--7--7---7-------------|
D |--7-----7----7--7--7---7-----------|--8-----8----8--8--8---8-------------|
A |--5-----5----5--5--5---5-----------|--8-----8----8--8--8---8-------------|
E |-----------------------------------|--6-----6----6--6--6---6-------------|

    Gm                                  A7
e |--3-----3----3--3--3---3-----------|--0-----0----0--0--0---0------------||
B |--3-----3----3--3--3---3-----------|--2-----2----2--2--2---2------------||
G |--3-----3----3--3--3---3-----------|--0-----0----0--0--0---0------------||
D |--5-----5----5--5--5---5-----------|--2-----2----2--2--2---2------------||
A |--5-----5----5--5--5---5-----------|--0-----0----0--0--0---0------------||
E |--3-----3----3--3--3---3-----------|------------------------------------||


Bass
G |--------------------7p5------------|------------------------------------||
D |--------------------------7--5-----|------------------------------------||
A |--------------------------------8--|--5-----5----5--5--5---5------------||
E |-----------------------------------|------------------------------------||


G |-----------------------------------|------------------------------------||
D |-----------------------------------|------------------------------------||
A |-----------------------------------|------------------------------------||
E |--6-----6----6--6--6---6--8--------|--3-----3----3--3--3---3------------||


G |-----------------------------------||
D |-----------------------------------||
A |-----------------------------------||
E |--5-----5----5--5--5---5--8--------||
Tap to rate this tab
 
# A B C D E F G H I J K L M N O P Q R S T U V W X Y Z