Song name
# A B C D E F G H I J K L M N O P Q R S T U V W X Y Z

The Savages - Gone To The Moon tab

-------------------------------------------------------------------------------
                             GONE TO THE MOON - The Savages
-------------------------------------------------------------------------------
Tabbed by: DPL
E-mail: nizibian@gmail.com
http://www.garagehangover.com/Savages/

Tuning: EADGBe

Intro riff:
e|---------------------------------------------------------------------|
B|--6--6-9-7-6---------------------------------------------------------|
G|--6----------8-6--8-6-4-4h6------------------------------------------|
D|--6------------------------------------------------------------------|
A|--4------------------------------------------------------------------|
E|---------------------------------------------------------------------|

Verse: Db Cm Bbm Ab

Pre-Chorus 1: Bbm Ab

Pre-Chorus 2:
e|---------------------------------------------------------------------|
B|---------------------------------------------------------------------|
G|--------------------------(6-3---------------------------------------|
D|-------------------------------4)------------------------------------|
A|-----------------4-4-4-----------------------------------------------|
E|-2-2-2-2-6-6-6-6-------6-6-6-6-6-------------------------------------|

Chorus: Bbm Db

Outro riff:
e|---------------------------------------------------------------------|
B|------------------------------------------------------6--------------|
G|------------------------------------------------------6--------------|  
D|-----3-6-4-3------3-6-4-3-----------3-6-4-3-------3---6--------------|
A|--4---------6-4-6---------6-4----4----------6-4-6---6-4--------------|
E|---------------------------------------------------------------------|



Song structure:
Intro riff x4
Verse x2
Pre-chorus 1 x3
Pre-chorus 2 x3
Chorus x2
Verse x3
Pre-chorus 1 x3
Pre-chorus 2 x3
Chorus x2
Verse x2
Pre-chorus 1 x3
Pre-chorus 2 x3
Chorus x2
Outro riff x2

************************************

| /   slide up
| \   slide down
| h   hammer-on
| p   pull-off
| ~   vibrato
| +   harmonic
| x   Mute note
| b   Bend
| pb  Pre-bend
| br  Bend release
| pbr Pre-bend release
| brb Bend release bend

************************************
Tap to rate this tab
# A B C D E F G H I J K L M N O P Q R S T U V W X Y Z