Song name
# A B C D E F G H I J K L M N O P Q R S T U V W X Y Z

The Scaries - Awake Acoustic tab

Help us improve GuitareTab! Take a short survey!
anything wrong? ebaydriver41@hotmail.com

http://www.reignition.com/artist/bio.asp?BandID=26


  intro/verse(x3)
e|-------------------------------------------|
B|--3/5/3-3----------------------------------|
G|--2/4/2-0------0-----0-------0--0----------|
D|-------------0-----0---------0--0----------|
A|-----------3-----3------0-2----------------|
E|------------------------------------(x2)---|

e|---------------------------------------------|
B|--3/5/3-3------------------------3-----------|
G|--2/4/2-0------0-----0-------0------0---0----|
D|-------------0-----0-----------0------0------|
A|-----------3-----3------0-2------------------|
E|---------------------------------------------|

e|----------3--3-3----3-3-3---|
B|---------3---3-3----3-3-3---|
G|--------0----0-0----0-0-0---|
D|-------0-----0-0----0-0-0---|
A|------2------2-2----x-x-x---|
E|--3--3-------3-3-2--2-2-2---|

  chorus
e|--0------0------0---0----0---------|
B|--3------3------3---3----3---------|
G|--0------0------0---0----0---------|
D|--2------2------0---0----2---------|
A|--2------3------x---x----3---------|
E|--x------x------3---2----x---(x2)--|

  bridge
e|--0------0----------------0----------------------|
B|-----3------3---0--------3---3---------3/5/3-3---|
G|-------0------0---------0-------0---0--2/4/2-0---|
D|-------------------2---2----------2--------------|
A|-------------------3--3--------------------------|
E|-------------------------------------------------|

  end
e|--0------0----------------3--3------3------------------3----|
B|-----3------3---0--------3------3------3---0----------3-----|
G|-------0------0---------0---------0------0-----------0------|
D|-------------------2---2----------2-----------------0-------|
A|-------------------3--3----------------------------2--------|
E|-----------------------------------------------3--3---------|


order is:

intro/verse x3
chorus x2
bridge
intro/verse x2
chorus x2
end
Related for Awake Acoustic tab