Song name
# A B C D E F G H I J K L M N O P Q R S T U V W X Y Z

The Scarlet Gospel - Her Pleasure tab

[x]- harmonic note(fingers lightly over where stated
x-mute
h-hammer on
p-pull off
*- pinched harmonic
/- slide



|--------------------------------------------------------------------------|
|-1----3----4--------------------------------------------------------------|
|-0----0----0--------------------------------------------------------------|
|-2----4----5------------00[3]---------------------------------------------|
|-3----5----6------------00[3]---------000000000---------000000000--------3*
|------------------------00[3]---------000000000---------000000000---0h1p0-|


|------------------------------------------------|
|------------5/4---------------------------------|
|------------8/7---9*----------------------------|     x4
|------------------------------------------------|
|000000000------------000000000------------------|
|000000000------------000000000--0h1-1/3-3/4-4-5-|


|----------------------------------------------------------------|
|----------------------------------------------------------------|
|---------------------------------------------------------5-8-8-7|x4
|-0-0---------------------------------------------------4-7------|
|-0-0----0-0-0-0-0-0-0-0-0-----0-0-0-0-0-0-0-0-0-----3-6---------|
|-0-0----0-0-0-0-0-0-0-0-0-----0-0-0-0-0-0-0-0-0-----------------|


|-----------------------------------------------------------------------|
|-----------------------------------------------------------------------|
|----------------------------------------------------------------5--5-5-|x4
|--0-2-3-2-0-0h2p0---2-3-5-3-2-2h3p2-----0-2-3-2-0-0h2p0---2-3-5-5--5-5-|
|1----------------3-0---------------3--1----------------3-0-------00-0--|
|-----------------------------------------------------------------------|


|-----------------------------------------------------------|
|-----------------------------------------------------------|
|-----777777777777-101010-101010-999999999999-101010-101010-|
|-----xxxxxxxxxxxx-x-x-x--x-x-x--xxxxxxxxxxxx-x-x-x--x-x-x--|
|0-0--555555555555-8 8 8--7 7 7 -777777777777-8 8 8--7 7 7 -|
|0-0--000000000000---------------888888888888---------------|


|-----------------------------------------------------|
|-----------------------------------------------------|
|---101010101010101010101010-121212121212121212121212-|
|---x-x-x-x-x-x-x-x-x-x-x-x--x-x-x-x-x-x-x-x-x-x-x-x--|
|---8 8 8-8 8 8-8 8 8-8 8 8--101010101010101010101010-|
|---7 7 7 7 7 7 7 7 7 7 7 7--8 8 8 8 8 8 8 8 8 8 8 8--|

|---------------------------------|
|---------------------------------|
|14141414141414141414141415151515-|
|x-x-x-x-x-x-x-x-x-x-x-x-x-x-x-x--|
|12121212121212121212121213131313-|
|10101010101010101010101011111111-|


Tap to rate this tab
 
# A B C D E F G H I J K L M N O P Q R S T U V W X Y Z