Song name
# A B C D E F G H I J K L M N O P Q R S T U V W X Y Z

The Scarlet Harlots - Cats Like Eyes tab

This took me ages to do so hope it does well

The Scarlet Harlots
Cats eyes

Intro


-----------------------------------------------------------------------------|
--8-10-8--R---10--8--7-7-7-7-7-7--3--7--888888888888--10-8--777777777777-----|
--7-9--7--I---9---7--7-7-7-7-7-7--2--7--777777777777--9--7--777777777777-----|
--9-11-9--N---11--9--7-7-7-7-7-7--4--7--999999999999--11-9--777777777777-----|
--7-9--7--G---9---7--5-5-5-5-5-5--2--5--777777777777--9--7--555555555555-----|
-----------------------------------------------------------------------------|


-------------------------------------------------------------------------|
--3--7--888888888888--10--8--777777777777--3--7--88-88-88-8-10-1212-1212-|
--2--7--777777777777--9---7--777777777777--2--7--77-77-77-7-9--1212-1212-|
--4--7--999999999999--11--9--777777777777--4--7--99-99-99-9-11-1212-1212-|
--2--5--777777777777--9---7--555555555555--2--5--77-77-77-7-9--1010-1010-|
-------------------------------------------------------------------------|


-----------------------------------------------------|
-1212-12--10-8-8-8-8-88888888------------------------|
-1212-12--9--7-7-7-7-77777777------------------------|
-1212-12--11-9-9-9-9-99999999------------------------|
-1010-10--9--7-7-7-7-77777777------------------------|
-----------------------------------------------------|


Pre-Verse

------------------------------------|
-88-88-77-77-55-55-55-55------------|
-77-77-77-77-55-55-55-55------------|
-99-99-77-77-55-55-55-55------------|
-77-77-55-55-33-33-33-33------------|    X4
------------------------------------|

Verse

-------------------------|
--8--7--55-55-55-55------|
--7--7--55-55-55-55------|
--9--7--55-55-55-55------|
--7--5--33-33-33-33------|
-------------------------|


---------------------------|
--8--7--5---R--------------|
--7--7--5---I--------------|
--9--7--5---N--------------|
--7--5--3---G--------------|
---------------------------|

Pre chorus

-----------------------------------------------------------------------------|
3-7-9-999-75-55-3-7-9-999-75-55-3-7-9-999-75-55-3-7-99999999-101010101010101-|
2-7-9-999-75-55-2-7-9-999-75-55-2-7-9-999-75-55-2-7-99999999-99999999--------|
4-7-9-999-75-55-4-7-9-999-75-55-4-7-9-999-75-55-4-7-99999999-111111111111111-|
2-5-7-777-53-33-2-5-7-777-53-33-2-5-7-777-53-33-2-5-77777777-99999999--------|
-----------------------------------------------------------------------------|


Chorus


-----------------------------------------------------------------------------|
--777777777777--3--7--888888888888--10-8--777777777777--3--7-888888888888-10-|
--777777777777--2--7--777777777777--9--7--777777777777--2--7-777777777777--9-|
--777777777777--4--7--999999999999--11-9--777777777777--4--7-999999999999-11-|
--555555555555--2--5--777777777777--9--7--555555555555--2--5-777777777777--9-|
-----------------------------------------------------------------------------|

-------------------------------|
-8-----------------------------|
-7-----------------------------|
-9-----------------------------|
-7-----------------------------|
-------------------------------|

Pre-Verse

------------------------------|
-88-77-55-55-55-55------------|
-77-77-55-55-55-55------------|
-99-77-55-55-55-55------------|
-77-55-33-33-33-33------------|    X2
------------------------------|


Verse

-------------------------|
--8--7--55-55-55-55------|
--7--7--55-55-55-55------|
--9--7--55-55-55-55------|
--7--5--33033033033------|
----------0--0--0--0-----|


--------------------------|
--8--7--5-----------------|
--7--7--5-----------------|
--9--7--5-----------------|
--7--5--3-----------------|
--------------------------|


Pre chorus

-----------------------------------------------------------------------------|
3-7-9-999-75-55-3-7-9-999-75-55-3-7-9-999-75-55-3-7-99999999-101010101010101-|
2-7-9-999-75-55-2-7-9-999-75-55-2-7-9-999-75-55-2-7-99999999-99999999--------|
4-7-9-999-75-55-4-7-9-999-75-55-4-7-9-999-75-55-4-7-99999999-111111111111111-|
2-5-7-777-53-33-2-5-7-777-53-33-2-5-7-777-53-33-2-5-77777777-99999999--------|
-----------------------------------------------------------------------------|


Chorus/Ending


-----------------------------------------------------------------------------|
--777777777777--3--7--888888888888--10-8--777777777777--3--7-888888888888-10-|
--777777777777--2--7--777777777777--9--7--777777777777--2--7-777777777777--9-|
--777777777777--4--7--999999999999--11-9--777777777777--4--7-999999999999-11-|
--555555555555--2--5--777777777777--9--7--555555555555--2--5-777777777777--9-|
-----------------------------------------------------------------------------|

-----------------------------------------------------------------------------|
-8-77777777737-888888888-10-12121212121212121210-88-88-88-88-8-R--5-R-8-R-5--|
-7-77777777727-777777777-9--1212121212121212129--77-77-77-77-7-I--5-I-7-I-5--|
-9-77777777747-999999999-11-12121212121212121211-99-99-99-99-9-N--5-N-9-N-5--|
-7-55555555525-777777777-9-101010101010101010109-77-77-77-77-7-G--3-G-7-G-3--|
-----------------------------------------------------------------------------|


Pre chorus

-----------------------------------------------------------------------------|
3-7-9-999-75-55-3-7-9-999-75-55-3-7-9-999-75-55-3-7-99999999-101010101010101-|
2-7-9-999-75-55-2-7-9-999-75-55-2-7-9-999-75-55-2-7-99999999-99999999--------|
4-7-9-999-75-55-4-7-9-999-75-55-4-7-9-999-75-55-4-7-99999999-111111111111111-|
2-5-7-777-53-33-2-5-7-777-53-33-2-5-7-777-53-33-2-5-77777777-99999999--------|
-----------------------------------------------------------------------------|


Chorus

-----------------------------------------------------------------------------|
--777777777777--3--7--888888888888--10-8--777777777777--3--7-888888888888-10-|
--777777777777--2--7--777777777777--9--7--777777777777--2--7-777777777777--9-|
--777777777777--4--7--999999999999--11-9--777777777777--4--7-999999999999-11-|
--555555555555--2--5--777777777777--9--7--555555555555--2--5-777777777777--9-|
-----------------------------------------------------------------------------|

-------------------------------------------------------------------|
-8-77777777737-888888888-10-12121212121212121210-88-88-88-88-8-R---|
-7-77777777727-777777777-9--1212121212121212129--77-77-77-77-7-I---|
-9-77777777747-999999999-11-12121212121212121211-99-99-99-99-9-N---|
-7-55555555525-777777777-9-101010101010101010109-77-77-77-77-7-G---|
-------------------------------------------------------------------|

By jaypaleja
Tap to rate this tab
 
# A B C D E F G H I J K L M N O P Q R S T U V W X Y Z