Song name
# A B C D E F G H I J K L M N O P Q R S T U V W X Y Z

The Scene Aesthetic - Grace Looks Back tab

-------------------------------------------------------------------------------
			 GRACE LOOKS BACK
-------------------------------------------------------------------------------
Tabbed by: BRANDON 
myspace.com/iamtheprivate myspace.com/byebyebeautifulband 

This is how you play it. Now there is a tab. all praise me. :) <3

Tuning: 1 half step DOWN

Verse.. 
Let the chords ring out
e|---0----0---0--------|
B|---0----0---0--------|
G|---4----4---4--------|
D|---2----2---2--------| x 2
A|---4----0---2--------|
E|---------------------|
We come across as frail...

STRUM THEM
e|---0----0---0--------|
B|---0----0---0--------|
G|---4----4---4--------|
D|---2----2---2--------| x 2
A|---4----0---2--------|
E|---------------------|
And we tried so hard to show you we care....

CHORUS 
e|--0-------0------0-----0--------------|
B|--0-------0------0-----0--------------|
G|--4-------9------4-----4--------------|
D|--2-------9------2-----4--------------| x2 last time let the A ring out
A|--0-------7------4-----2--------------|
E|--------------------------------------|
If you wanna believe in me.....


2nd verse
STRUM
e|---0----0---0--------|
B|---0----0---0--------|
G|---4----4---4--------|
D|---2----2---2--------| x 4
A|---4----0---2--------|
E|---------------------|
Can I have your time.......


CHORUS 
e|--0-------0------0-----0--------------|
B|--0-------0------0-----0--------------|
G|--4-------9------4-----4--------------|
D|--2-------9------2-----4--------------| x4 last time let the A ring out
A|--0-------7------4-----2--------------|
E|--------------------------------------|
If you wanna believe in me.....

BRIDGE
Let the chords ring out
e|---0----0---0--------|
B|---0----0---0--------|
G|---4----4---4--------|
D|---2----2---2--------| x 2
A|---4----0---2--------|
E|---------------------|
Is it too late to save you, to save you now?

STRUM THEM
e|---0----0---0--------|
B|---0----0---0--------|
G|---4----4---4--------|
D|---2----2---2--------| x 2
A|---4----0---2--------|
E|---------------------|
Is it too late to save you, to save you now?


CHORUS 
e|--0-------0------0-----0--------------|
B|--0-------0------0-----0--------------|
G|--4-------9------4-----4--------------|
D|--2-------9------2-----4--------------| x4 END ON A
A|--0-------7------4-----2--------------|
E|--------------------------------------|
If you wanna believe in me.....


Tap to rate this tab
 
# A B C D E F G H I J K L M N O P Q R S T U V W X Y Z