Song name
# A B C D E F G H I J K L M N O P Q R S T U V W X Y Z

The Scene Aesthetic - Humans tab

Help us improve GuitareTab! Take a short survey!
sorry its just the intro. this is the first tab ive done so i hope you like it. it 
pretty accurate to me for one guitar part. well thanks.

The song basically consists of the chords: G, C, D, G (order after this part vvvvvvvv)

h-hammer on
p-pulloff
~-hold out/let ring

|----------------------------------------------------------------------------|
|--------0-----------0-------------1-----------1------------3-----------3----|
|----0-------0---0-------0-----0-------0---0-------0----2-------2---2------2-|
|-----------------------------------------------------0---0---0---0---0---0--|
|--------------------------1h2---2---2---2---2---2---------------------------|
|--3---3---3---3---3---3-----------------------------------------------------|
                  (deep deep inside..vvvv)
----------------------------------------------------------------------------|
------------0h1-0---------0-----------0-------------1-----------1-----------|
---0------------------0-------0---0-------0-----0-------0---0-------0----2--|
-----------------------------------------------------------------------0----|
--------1h2---------------------------------1h2---2---2---2---2---2---------|
-3---3--------------3---3---3---3---3---3-----------------------------------|

--------------------------------------------|
--3-----------3-----------0-----------0-----|
------2---2-------2---0-------0---0-------0-|
0---0---0---0---0---------------------------|x2 i think
--------------------------------------------|
--------------------3---3---3---3---3---3---|
Related for Humans tab