Song name
# A B C D E F G H I J K L M N O P Q R S T U V W X Y Z

The Scene Aesthetic - Its A Promise Like A Song chords

----------------------------------------------------------------------------
			  It's a Promise, Like A Song - The Scene Aesthetic
----------------------------------------------------------------------------
Tabbed by: Alli
Email:ablackerby@bellsouth.net

Tuning: Standard

STRUMMING NOT SHOWN

Intro/verse:

e|-------0-------0--------0-------0-------------0--------0-------0-------0----|
B|---3--------3-------3-------3---------3---3--------3-------3-------3--------|
G|-4---4----4---4---4---4---4---4---2h4---4---4---m---4---4---4---4---4-------|
D|----------------------------------------------------------------------------|
A|----------------------------------------------------------------------------|
E|----------------------------------------------------------------------------|

e|-------0-------0-------0-------0-------0-------0-------0-------0--------|
B|---3-------3-------3-------3-------2-------2-------2-------2------------|
G|-2---2---2---2---2---2---2---2---2---2---2---2---3---3---3---3----------|
D|------------------------------------------------------------------------|
A|------------------------------------------------------------------------|
E|------------------------------------------------------------------------|

Verse (Chords):
e|-2-----5------------------------------------------------------------------|
B|-3-----5------------------------------------------------------------------|
G|-4-----7------------------------------------------------------------------|
D|-4-----7------------------------------------------------------------------|
A|-2-----5------------------------------------------------------------------|
E|--------------------------------------------------------------------------|

Chorus:
e|--3---2---5-----------------------------------------------------------------|
B|--3---3---7-----------------------------------------------------------------|
G|--0---4---7-----------------------------------------------------------------|
D|--2---4---5-----------------------------------------------------------------|
A|--2---2---5-----------------------------------------------------------------|
E|----------------------------------------------------------------------------|
Tap to rate this tab
 
# A B C D E F G H I J K L M N O P Q R S T U V W X Y Z