Song name
# A B C D E F G H I J K L M N O P Q R S T U V W X Y Z

The Scene Aesthetic - Letters tab

The Scene Aesthetic
Letters

This is all by ear, so i cannot assure you 100% correct but i really think it is


Chords used: G,G/Bm,Cadd9,Em

     G       G/B    Cadd9                     Em
e|-3-------3--------3--------------3-------------------------------------|
B|-3-------3--------3--------------3-------------------------------------|
G|-0-------0--------0--------------0-------------------------------------|
D|-0-------0--------2--------------2-------------------------------------|
A|-2-------2--------3--------------2-------------------------------------|
E|-3-------x--------x--------------0-------------------------------------|


Intro


e|-------------------------------------------------------------------------|
B|-------------------------------------------------------------------------|
G|-----0--------0----------0-----0---2/4/2h0-------------------------------|
D|---0-------0----------0------0-------------------------------------------|
A|---------2--------3------------------------------------------------------|
E|-3-----------------------------------------------------------------------|

e|------------------------------------------------------------------------|
B|------------------------------------------------------------------------|
G|-----0--------0----------0-----0---2h0----------------------------------|
D|---0-------0----------0------0-------------2h0--------------------------|
A|---------2--------3-----------------------------------------------------|
E|-3----------------------------------------------------------------------|

        Repeat Twice



Bride:

Palm mute the first 3 strings of each of the chords

G, G/B, Cadd9


Chorus

G    Cadd9   G    Cadd7    Em    Cadd9   Em    C add9    x2


Sorry about the layout of this tab it isn't really put out well but that i pretty much it :)

I hope this helped

Any questions
Email me
Asialicous@gmail.com
Tap to rate this tab
# A B C D E F G H I J K L M N O P Q R S T U V W X Y Z