Song name
# A B C D E F G H I J K L M N O P Q R S T U V W X Y Z

The Scene Aesthetic - Alvin Makers Greensong tab

----------------------------------------------
"Alvin Makers Greensong" - The Scene Aesthetic
----------------------------------------------
Tabbed by: Justin RiRaY
Email: Pakman7JR@hotmail.com    AIM: BeatPwner

Tuning: eBGDAE


     INTRO
 
e|------------------------|
B|----0----0----0-0-0-----|
G|--4----4----4---4-11\8--|
D|---2----2----2--2-------|
A|-0----0----0------------|
E|------------------------|
 
e|---------------------------|
B|----0----0----0---7h9------|
G|--4----4----4---4-8h9------|
D|---2----2----2--2----------|
A|-0----0----0---------------|
E|---------------------------|

e|-------------------------|
B|----0----0----0-0-0------|
G|--4----4----4---4-11\8---|
D|---2----2----2--2------0-|
A|-0----0----0-------------|
E|-------------------------|

e|------------------0~----|
B|----0----0----0---4~----|
G|--4----4----4---4-4~----|
D|---2----2----2--2-2~----|
A|-0----0----0------0~----|
E|------------------------|


     VERSE
 
e|--0-0-0-2--|
B|--0-0-0-0--|
G|--4-4-4-4--|
D|--2-2-2-2--|
A|--0-0-0-0--|
E|-----------|


     Pre-CHORUS

e|--0--0--0~---0-0-0---|
B|--0--0--0~---0-0-0---|
G|--4--4--2~---4-4-4---|
D|--2--1--2~---2h4p2---|
A|--4--3--0~---0-0-0---|
E|---------------------|
Tap to rate this tab
# A B C D E F G H I J K L M N O P Q R S T U V W X Y Z