Song name
# A B C D E F G H I J K L M N O P Q R S T U V W X Y Z

The Scene Aesthetic - Dear Time Traveler tab

Title: "Dear Time Traveler"
Artist: The Scene Aesthetic
Album: Building Homes From What We've Known


Note: This is only one of the guitars. I can't figure out the other guitar stuff yet.

e|----------------------------|---------4-2-----------4-2--|
B|---4-4h5-7-5-----4-4h5-7-5--|---4-4h5-----5---4-4h5-----5|
G|--4-4--------4--4-4--------4|--4-4-----------4-4---------|
D|----------------------------|----------------------------|
A|-0-------------0------------|----------------------------|
E|----------------------------|-0-------------0------------|

e|----------------------------|---------4-2----4~-|
B|---4-4h5-7-5-----4-4h5-7-5--|---4-4h5-----5--5~-|
G|--4-4--------4--4-4--------4|--4-4-----------4~-|
D|----------------------------|-------------------|
A|-0-------------0------------|-------------------|
E|----------------------------|-0-----------------|

This is my best attempt. I think there's probably an easier way to play it but yeah this 
what I got for now.

-Philly F.
Tap to rate this tab
 
# A B C D E F G H I J K L M N O P Q R S T U V W X Y Z