Song name
# A B C D E F G H I J K L M N O P Q R S T U V W X Y Z

The Scene Aesthetic - Dear Time Traveller tab

It's kind of hard to play so I'm not sure if this is the exact way he played it, but 
what i've figured it out, it goes like this:

Guitar 1: intro

e|------------------------------|-7--------------7--------------|
B|----4-4h5-7-5------4-4h5-7-5--|----5-5h7-9-7-5----5-5h7-9-7-5-|
G|---4-4--------4---4-4--------4|---4-4------------4-4----------|
D|------------------------------|-------------------------------| (x2)
A|-0--------------0-------------|----------------0--------------|
E|------------------------------|-------------------------------|

Guitar 2: intro

e|----------0--------------0----|----------2--------------2-----|
B|--------0---0----------0---0--|--------0---0----------0---0---|
G|----2-2-------2----2-2-------2|----2-2-------2----2-2-------2-|
D|---2-2------------2-2---------|---2-2------------2-2----------| (x2)
A|-0--------------0-------------|-0--------------0--------------|
E|------------------------------|-------------------------------|

Verse (Chords):

    Am
e|--0----------0----------0----------|
B|--0----------0----------0----------|
G|--2----------6----------9----------|
D|--2----------6----------9----------|
A|--0----------4----------7----------|
E|--0----------0----------0----------|

Chorus (Chords):

e|--0----------0----------0----------0----------0--|
B|--0----------0----------0----------0----------0--|
G|--1----------2----------4----------6----------2--|
D|--2----------2----------4----------6----------2--|
A|--2----------0----------2----------4----------0--|
E|--0----------0----------0----------0----------0--|


This is as much as I could figure out, hopefully it helps.  Listen to the song for the 
pattern and chord changes.  Questions or comments can be emailed to 
(or corrections).
Tap to rate this tab
# A B C D E F G H I J K L M N O P Q R S T U V W X Y Z