Song name
# A B C D E F G H I J K L M N O P Q R S T U V W X Y Z

The Scene Aesthetic - Weve Got The Rain On Our Side tab

Help us improve GuitareTab! Take a short survey!
-------------------------------------------------------------------------------
       We've Got The Rain On Our Side - The Scene Aesthetic
-------------------------------------------------------------------------------
Tabbed by:
Email:

Tuning:

This song is in 6/8


(0:00-0:13) 
e|----0----0----0----0----0----0-|
B|-12---12---12---12---12---12---|
G|-------------------------------| 6x
D|-------------------------------|
A|-------------------------------|
E|-------------------------------|

(0:14-0:18)
e|---0---0---0---0---0---0---0---0---0---0---0---0-|
B|-7---7---7---7---7---7---4---4---4---4---4---5---|
G|-------------------------------------------------|
D|-------------------------------------------------|
A|-------------------------------------------------|
E|-------------------------------------------------|

(0:19-0:22)
e|----0----0----0----0----0----0---0---0---0---0---0---0-|
B|-12---12---12---12---12---12---9---9---9---9---9---9---|
G|-------------------------------------------------------|
D|-------------------------------------------------------|
A|-------------------------------------------------------|
E|-------------------------------------------------------|

(0:23-0:31)
e|----0----0----0----0----0----0-|
B|-12---12---12---12---12---12---|
G|-------------------------------| 4x
D|-------------------------------|
A|-------------------------------|
E|-------------------------------|

(0:32-0:36)
e|---0---0---0---0---0---0---0---0---0---0---0---0-|
B|-7---7---7---7---7---7---4---4---4---4---4---5---|
G|-------------------------------------------------|
D|-------------------------------------------------|
A|-------------------------------------------------|
E|-------------------------------------------------|

(0:37-0:41)
e|----0----0----0----0----0----0---0---0---0---0---0---0-|
B|-12---12---12---12---12---12---9---9---9---9---9---9---|
G|-------------------------------------------------------|
D|-------------------------------------------------------|
A|-------------------------------------------------------|
E|-------------------------------------------------------|


e|------------------|
B|------------------|
G|------------------| 4x
D|----------1--2--2-|
A|-0--2--4----------|
E|------------------|


Related for Weve Got The Rain On Our Side tab