Guitaretab - guitar tabs
Song name
# A B C D E F G H I J K L M N O P Q R S T U V W X Y Z

The Scene Aesthetic - Heavy Lies The Crown tab

No one had this tab... ended up googling it for like an hour. So yeah. WellÖ thereís 
to be 2 guitars, but Iím making a one-guitar version one. :]
My first tab.. so if this turns out to be appealingÖ Iíll start making more? Haha.
Enjoy :] it's a simple song with a little complex rhythm.


Song: Heavy Lies the Crown
Artist: The Scene Aesthetic
Tabbed by: John Lee
Email: johnnyboy9201@hotmail.com

Standard Tuning with Capo on 2nd fret.

(The strumming is easy. You should be able to get it after listening to it)

Intro:(This is before they start singing)[0:00-0:25]
e|----------3-3-3---3-3-3-3---3-3-3-3-3-3------|
B|----------3-3-3---3-3-3-3---3-3-3-3-3-3------|
G|---0------0-0-0---0-0-0-0---0-0-0-0-0-0------|[4X]
D|--2-2-0-2-2-2-2---2-2-2-2---0-0-0-0-0-0------|
A|----------2-2-2---3-3-3-3---2-2-2-2-2-2------|
E|----------0-0-0---0-0-0-0---3-3-3-3-3-3------|

Pre-verse: [0:26-0:49]
e|----------3-3-3---3-3-3-3---3-3-3-3-3-3------|
B|----------3-3-3---3-3-3-3---3-3-3-3-3-3------|
G|---0------0-0-0---0-0-0-0---0-0-0-0-0-0------|[4X]
D|--2-2-0-2-2-2-2---2-2-2-2---0-0-0-0-0-0------|
A|----------2-2-2---3-3-3-3---2-2-2-2-2-2------|
E|----------0-0-0---0-0-0-0---3-3-3-3-3-3------|

Verse:[0:50-1:02]
e|--0----0----0----0--|
b|--0----0----0----0--|
g|--2----0----0----0--|[2X]
d|--2----2ó---2----2--|
a|--0----3----2----2--|
e|--0----0----0----0--|

Chorus:[1:03-1:25]
(strumming not shown)
e|--3----3----3----0----0---|
b|--3----3----3----0----0---|
g|--0----0----0----2----0---|[2X]
d|--2----0----2----2----2---|
a|--2----2----3----0----3---|
e|--0----3----0----0----0---|

Outro: [1:26-1:37]
e|----------3-3-3---3-3-3-3---3-3-3-3-3-3------|
B|----------3-3-3---3-3-3-3---3-3-3-3-3-3------|
G|---0------0-0-0---0-0-0-0---0-0-0-0-0-0------|[2X]
D|--2-2-0-2-2-2-2---2-2-2-2---0-0-0-0-0-0------|
A|----------2-2-2---3-3-3-3---2-2-2-2-2-2------|
E|----------0-0-0---0-0-0-0---3-3-3-3-3-3------|
Pre-verse: [1:38-2:03]
e|-------3-3-3-3--3-3-3-3---3-3-3-3-3-3-3-----|
B|-------3-3-3-3--3-3-3-3---3-3-3-3-3-3-3-----|
G|-------0-0-0-0--0-0-0-0---0-0-0-0-0-0-0-----|[2X]
D|-------2-2-2-2--2-2-2-2---0-0-0-0-0-0-0-----|
A|-------2-2-2-2--3-3-3-3---2-2-2-2-2-2-2-----|
E|-3-2-0-0-0-0-0--0-0-0-0---3-3-3-3-3-3-3-----|
[ Tab from: http://www.guitaretab.com/t/the-scene-aesthetic/97014.html ]
e|-3-3-3-3--3-3-3-3---3-3-3-3-3-3-3-----|
B|-3-3-3-3--3-3-3-3---3-3-3-3-3-3-3-----|
G|-0-0-0-0--0-0-0-0---0-0-0-0-0-0-0-----|
D|-2-2-2-2--2-2-2-2---0-0-0-0-0-0-0-----|
A|-2-2-2-2--3-3-3-3---2-2-2-2-2-2-2-----|
E|-0-0-0-0--0-0-0-0---3-3-3-3-3-3-3-----|

e|----------3-3-3-3--3-3-3-3---3-3-3-3-3-3-3-----|
B|----------3-3-3-3--3-3-3-3---3-3-3-3-3-3-3-----|
G|----------0-0-0-0--0-0-0-0---0-0-0-0-0-0-0-----|
D|----------2-2-2-2--2-2-2-2---0-0-0-0-0-0-0-----|
A|----------2-2-2-2--3-3-3-3---2-2-2-2-2-2-2-----|
E|----3-2-0-0-0-0-0--0-0-0-0---3-3-3-3-3-3-3-----|

e|-3-3-3-3--3-3-3-3---3-3-3-3-3-3-3-----|
B|-3-3-3-3--3-3-3-3---3-3-3-3-3-3-3-----|
G|-0-0-0-0--0-0-0-0---0-0-0-0-0-0-0-----|
D|-2-2-2-2--2-2-2-2---0-0-0-0-0-0-0-----|
A|-2-2-2-2--3-3-3-3---2-2-2-2-2-2-2-----|
E|-0-0-0-0--0-0-0-0---3-3-3-3-3-3-3-----|

Verse:[2:04-2:16]
e|--0----0----0----0-0-0-0-0-0-0-0-0-0|
b|--0----0----0----0-0-0-0-0-0-0-0-0-0|
g|--0----0----0----0-0-0-0-0-0-0-0-0-0|[2X]
d|--2----2ó---2----2-2-2-2-2-2-2-2-2-2|
a|--3----3----3----3-3-3-3-3-3-3-3-3-3|
e|--0----0----0----0-0-0-0-0-0-0-0-0-0|

Chorus:[2:17-2:41]
(strumming not shown)
e|--3----3----3----0----0---|
b|--3----3----3----0----0---|
g|--0----0----0----2----0---|[2X]
d|--2----0----2----2----2---|
a|--2----2----3----0----3---|
e|--0----3----0----0----0---|

Verse:[2:42-3:09]
(strumming not shown)
e|--0-----0--0--0--0---0--0--0--0---0--0--0--0---0--0--00000000|
b|--0-----0--0--0--3---0--0--0--3---0--0--0--3---0--0--00000000|
g|--0-----2--0--0--0---2--0--0--0---2--0--0--0---2--0--00000000|
d|--2-----2--2--2--2---2--2--2--2---2--2--2--2---2--2--22222222|
a|--3-----0--3--2--3---0--3--2--3---0--3--2--3---0--3--22222222|
e|--0-----0--0--0--0---0--0--0--0---0--0--0--0---0--0--00000000|


Chorus:[3:10-3:56]
(strumming not shown)
e|--3----3----3----0----0---|
b|--3----3----3----0----0---|
g|--0----0----0----2----0---|[4X]
d|--2----0----2----2----2---|
a|--2----2----3----0----3---|
e|--0----3----0----0----0---|

Conclusion: [3:58-4:13]
e|----------3-3-3---3-3-3-3---3-3-3-3-3-3------|
B|----------3-3-3---3-3-3-3---3-3-3-3-3-3------|
G|---0------0-0-0---0-0-0-0---0-0-0-0-0-0------|[2X]
D|--2-2-0-2-2-2-2---2-2-2-2---0-0-0-0-0-0------|
A|----------2-2-2---3-3-3-3---2-2-2-2-2-2------|
E|----------0-0-0---0-0-0-0---3-3-3-3-3-3------|

DONE!
Please donít take this work and put it as yours. I spent a long time working on it. Itís 
not perfect but Iím pretty sure itís accurate :]
Related for Heavy Lies The Crown tab