Guitaretab - guitar tabs
Song name
# A B C D E F G H I J K L M N O P Q R S T U V W X Y Z

The Scene Aesthetic - To The Steadfast tab

Standard Tuning
(Strumming Patterns Aren't Correct, Tried As Close As I Could)

Intro
e|---3-3-3---3---3-3-3-3--3-3---|
B|---3-3-3h0-3---3-3-3-3--3-3---|
G|---0-0-0---2h0-0-0-0-0--2-2h0-|
D|---0-0-0---0---0-0-0-0--0-0---|
A|---2-2-2---0---0-0-0-0--0-0---|
E|---3-3-3---3---3-3-3-3--3-3---|

e|---3-3-3---3---3-3-3-3--3-3---|
B|---3-3-3h0-3---3-3-3-3--3-3---|
G|---0-0-0---2h0-0-0-0-0--2-2h0-|
D|---2-2-2---2---2-2-2-2--2-2---|
A|---0-0-0---0---0-0-0-0--0-0---|
E|---x-x-x---x---x-x-x-x--x-x---|
[ Tab from: http://www.guitaretab.com/t/the-scene-aesthetic/99240.html ]
e|---3-3-3---3---3-3-3-3--3-3---|
B|---3-3-3h0-3---3-3-3-3--3-3---|
G|---0-0-0---2h0-0-0-0-0--2-2h0-|
D|---2-2-2---0---0-0-0-0--0-0---|
A|---3-3-3---3---3-3-3-3--3-3---|
E|---x-x-x---x---x-x-x-x--x-x---|

e|-----3--333-333--33-|
B|-----3--333-333--33-|
G|-----0--000-000--00-|
D|-----0--000-000--00-|
A|-----2--222-222--22-|
E|---3-3--333-333--33-|

Repeat Twice

Sorry Thats All I Have Right Now. The Intro Is Only Played With One Guitar. Its Also The 
Riff.
Not Quite Sure If Its Right But It Sounds Decent So Use It If You Want.
If You Have Any Improvements And Tabs For The Rest Of The Song Email Me At
dom_is_con@yahoo.ca
Please Rate/Comment
Related for To The Steadfast tab
Advertisement will be closed in 10 seconds