Song name
# A B C D E F G H I J K L M N O P Q R S T U V W X Y Z

The Scenic - The American Way tab

-------------------------------------------------------------------------------
			                                   The American Way - The Scenic
-------------------------------------------------------------------------------
Tabbed by: PunkRockDuder
Tuning: Standard
Band Website: www.myspace.com/thescenic
Label: Victory Records
Album: Find Yourself Here

I've read a bunch of places that people are looking for this tab, so here it is. Enjoy!

Rad song! Rad band!


Intro/Verse
e-------------------------|
B-------------------------|
G--7----2---4---6---------|
D--0----0---0---0---------|
A--x----x---x---x---------|
E--7----2---3---5---------|

Pre Chorus ("And she pleads..")
e-------------------------|
B-(3)------(5)------------|
G--4----2---6-------------|
D--0----0---0-------------|
A--x----x---x-------------|
E--3----2---5-------------|


Chorus ("And you know...")
e--3----2---0--0----3---2---2--0----|
B--3----3---3--2----3---3---3--2----|
G--0----2---2--2----0---2---4--2----|
D--0----0---2--2----0---0---4--2----|
A--2--------0--0----2-------2--0----|
E--3----------------3---------------|


Bridge*
e------3---0--------------------------|
B--3---3---2--------------------------|
G--2---0---2--------------------------|
D--0---0---2--------------------------|
A--x---2---0--------------------------|
E--2---3------------------------------|

*This is what it looked like the guy was playing on a video I saw on youtube. The actual 
version sounds all digital. If you just pick those chords, it sounds right.

The Outro is the same as the chorus.

Please post comments and let me know what you think! If you want any more from these 
just message me and I'll try to tab some more out. These guys rule.
Tap to rate this tab
 
# A B C D E F G H I J K L M N O P Q R S T U V W X Y Z