Song name
# A B C D E F G H I J K L M N O P Q R S T U V W X Y Z

The School Of Worship - Christ In Me tab

Christ In Me
Key of G
150bpm
Lead and Rhythm Guitar


Intro
Lead Guitar
e|--------------------------------------------------------------------------|
B|--------------------------------------------------------------------------|
G|--------------------------------------------------------------------------|
D|----999-(10)(10)(10)-999-77-99---------------999-(10)(10)(10)-999---------|
A|-777-----------------------------(10)(10)(10)----------------------77-----|
E|-------------------------------------------------------------------00-----|

Rhythm Guitar
(dotted 8th delay)
e|--------|
B|--------|
G|---9----|
D|--------|
A|--------|
E|--------|


Intro Part2
Lead Guitar
triplett octaves
2x
    E         B              C              B            A         B
e|-------------------------------------------------------------------------|
B|-------------------------------------------------------------------------|
G|-999---(16)(16)(16)---(17)(17)(17)---(16)(16)(16)---(14)(14)--(16)(16)---|
D|-------------------------------------------------------------------------|
A|-777---(14)(14)(14)---(15)(15)(15)---(14)(14)(14)---(12)(12)--(14)(14)---|
E|-------------------------------------------------------------------------|

        G             B           C            B          A         B    E
e|--------------------------------------------------------------------------|
B|--------------------------------------------------------------------------|
G|-(12)(12)(12)-(16)(16)(16)-(17)(17)(17)-(16)(16)(16)-(14)(14)-(16)(16)-9--|
D|--------------------------------------------------------------------------|
A|-(10)(10)(10)-(14)(14)(14)-(15)(15)(15)-(14)(14)(14)-(12)(12)-(14)(14)-7--|
E|--------------------------------------------------------------------------|


Rhythm Guitar
     E5      F#     G5      A5  B5   A5       C5      B5      E5
e|-----------------------------------------------------------------|
B|-----------------------------------------------------------------|
G|--------------------------------------------5-------4------------|
D|---2-------4------5-------77--99---7--------5(x8)---4(x8)---2----|
A|---2(x12)--x(x4)--5(x12)--77--99---7(x16)---3-------2-------2----|
E|---0-------2------3-------55--77---5------------------------0----|





Verse 1
(first half played by piano)
Christ in me the hope of glory, He has come to set the captives free

(second half)
Lead Guitar
1/4th delay - notes pulled down the fretboard towards the headstock

   This power and love displayed for all to see,
e|------------------------------------|
B|-----(12)----------------(15)-------|
G|------9------------------(12)-------|
D|------------------------------------|
A|------------------------------------|
E|------------------------------------|

    Christ in me the hope of glory
e|------------------------------------|
B|--(17)-------------(13)-----(12)----|
G|--(14)-------------(12)-----(11)----|
D|------------------------------------|
A|------------------------------------|
E|------------------------------------|


Rhythm Guitar
        E5              F#   G5                 
   This power and love displayed for all to see,
e|----------------------------------------------|
B|----------------------------------------------|
G|----------------------------------------------|
D|------2---------------4----5------------------|
A|------2---------------x----5------------------|
E|------0---------------2----3------------------|

    A5  B5   A5               C5      B5
             Christ in me the hope of glory
e|-----------------------------------------|
B|-----------------------------------------|
G|----------------------------5-------4----|
D|--7---9----7----------------5-------4----|
A|--7---9----7----------------3-------2----|
E|--5---7----5-----------------------------|





Pre-Chorus
Rhythm Guitar
    
          C5               E5                 G5              A5
     All glory and honor blongs to you. All glory and honor belongs to you.
e|--------------------------------------7-----------------------------------|
B|-------------------------------------8------------------------------------|
G|--------5----------------9----------9-------7-----------------------------|
D|--------5----------------9------------------5----------------7------------|
A|--------3----------------7------------------5----------------7------------|
E|-------------------------------------------------------------5------------|






Chorus
Lead Guitar - Octaves
Rhythm Guitar - Chords

   C5                                    E5
   We lift you up higher and higher,     we shout as one your holy choir
e|--------------------------------------------------------------------------|
B|--------------------------------------------------------------------------|
G|-9---------------------------(16)------9--------------------------(16)----|
D|--(x12)--------------------------(x4)---(x12)-------------------------(x4)|
A|-7---------------------------(14)------7--------------------------(14)----|
E|--------------------------------------------------------------------------|

     G5                                    D5
     We proclaim that you are God,         You are God
e|------------------------------------------------------------------|
B|------------------------------------------------------------------|
G|---(12)---------------------(16)--------(11)----------(14)--------|
D|-------(x12)--------------------(x4)--------(x8)----------(x8)----|
A|---(10)---------------------(14)---------9------------(12)--------|
E|------------------------------------------------------------------|






Verse2 (part1)
Lead Guitar
1/4 delay - notes pulled down the fretboard towards the headstock

   Christ in me the hope of glory, he has come to set the captaives free
e|-------------------------------------------------------------------------|
B|-(12)-------------(15)-----------(17)----------(13)---------------(12)---|
G|--9---------------(12)-----------(14)----------(12)---------------(11)---|
D|-------------------------------------------------------------------------|
A|-------------------------------------------------------------------------|
E|-------------------------------------------------------------------------|

Rhythm Guitar (palm mute)
   E5         F#   G5           A5 B5 A5               C5               B5
 Christ in me the hope of glory,      he has come to set the captives free
e|------------------------------------------------------------------------|
B|------------------------------------------------------------------------|
G|-----------------------------------------------------5----------------4-|
D|--2---------4----5------------7--9---7---------------5----------------4-|
A|--2---------x----5------------7--9---7---------------3----------------2-|
E|--0---------2----3------------5--7---5----------------------------------|


Verse2 (part2/party breakdown)
Lead Guitar

  This power and love displayed for all to see,    
e|-------------------------------------------------|
B|-------------------------------------------------|
G|-------9------(11)-(12)--9------------------(19)-|
D|-------------------------------------------------|
A|-------7-------9---(10)--7------------------(17)-|
E|-------------------------------------------------|

   Christ in me the hope of glory
e|--------------------------------|
B|--------------------------------|
G|--9------------(11)-(12)---(11)-|
D|--------------------------------|
A|--7-------------9---(10)----9---|
E|--------------------------------|

Rhythm Guitar

  This power and love displayed for all to see, 
e|-----------------------------------------------|
B|-----------------------------------------------|
G|-------9-----------(11)--9-------------------5-|
D|-----------------------------------------------|
A|-------7------------9----7-------------------7-|
E|-----------------------------------------------|

   Christ in me the hope of glory
e|---------------------------------|
B|---------------------------------|
G|---9------------(11)-9-------7---|
D|---------------------------------|
A|---7-------------9---7-------5---|
E|---------------------------------|





Pre-Chorus
Chorus





Bridge (quiet)
Lead Guitar

   There is no one like our God, there is no one like our King.
e|---------(12)----(10)------------------(10)-------------(10)---|
B|---------(12)----(12)------------------(12)-------------(12)---|
G|---------(12)----(12)------------------(12)-------------(12)---|
D|---------------------------------------------------------------|
A|---------------------------------------------------------------|
E|---------------------------------------------------------------|


Rhythm Guitar
octaves

   There is no one like our God, there is no one like our King.
e|---------------------------------------------------------------|
B|---------------------------------------------------------------|
G|----------5--------9-------------------(12)--------------7-----|
D|---------------------------------------------------------------|
A|----------3--------7-------------------(10)--------------5-----|
E|---------------------------------------------------------------|

 
Bridge (Build)
Lead Guitar
e|----------------------------|
B|----------------------------|
G|----------------------------|
D|---(11)~9--(x3)----(11)~7---|
A|----------------------------|
E|----------------------------|

Rhythm Guitar

            C5                   E5
   There is  no       one        like our God,      
e|---------------------------------------------------|
B|---------------------------------------------------|
G|----------5-5-555---5-5-555------------------------|
D|----------5-5-555---5-5-555----2-2-222---2-2-222---|
A|----------3-3-333---3-3-333----2-2-222---2-2-222---|
E|-------------------------------0-0-000---0-0-000---|
             
             G5                               D5
   There is  no       one        like our King
e|-----------------------------------------------------------------|
B|-----------------------------------------------------------------|
G|---------------------------------------------7-7-777---7-7-777---|
D|-----------5-5-555---5-5-555-----------------7-7-777---7-7-777---|
A|-----------5-5-555---5-5-555-----------------5-5-555---5-5-555---|
E|-----------3-3-333---3-3-333-------------------------------------|


Bridge (Full)
Lead Guitar
octaves

   There is no one like our God, there is no one like our King.
e|-----------------------------------------------------------------|
B|-----------------------------------------------------------------|
G|---------(17)-----9--------------------(12)-------------(19)-----|
D|-----------------------------------------------------------------|
A|---------(15)-----7--------------------(10)-------------(17)-----|
E|-----------------------------------------------------------------|

Rhythm Guitar
Chords

            C5      E5                    G5               D5
   There is no one like our God, there is no one like our King.
e|-----------------------------------------------------------------|
B|-----------------------------------------------------------------|
G|----------5------------------------------------------------------|
D|----------5-------2---------------------5----------------7-------|
A|----------3-------2---------------------5----------------7-------|
E|------------------0---------------------3----------------5-------|




Final Chorus - Play Intro Chords and Riff
Tap to rate this tab
# A B C D E F G H I J K L M N O P Q R S T U V W X Y Z