Song name
# A B C D E F G H I J K L M N O P Q R S T U V W X Y Z

The Score - Scorponok tab

e------------------------------------------------------------------|
B------------------------------------------------------------------|
G------------------------------------------------------------------|
D-----------7--------7-----7---------------11----------11------11--|
A--9--9--9-----9--9-----9------12--12--12------12--12------12------|
E------------------------------------------------------------------|

e------------------------------------------------------------------|
B------------------------------------------------------------------|
G--------------9----------9------9------------8-----8--------------|
D--11--11--11-----11--11-----11------9--9--9-----9-----9--7--6-----|
A------------------------------------------------------------------|
E------------------------------------------------------------------|
Tap to rate this tab
 
# A B C D E F G H I J K L M N O P Q R S T U V W X Y Z