Song name
# A B C D E F G H I J K L M N O P Q R S T U V W X Y Z

The Screamers - 122 Hours Of Fear tab

I know this was written for keys, but I kinda figured out the guitar equivilant

Intro
e----------------|
B----------------|
G--13--16--12s13-|
D----------------|
A----------------|
E----------------|

e--------------------------|
B--------------------------|
G--------------------------|
D--------------------------|
A------3-----6-----3-----6-|
E--5-5---5-5---5-5---5-5---|

e----------------------------|
B----------------------------|
G----------------------------|
D----------------------------|
A--7---6---5---4---3---2-----|
E--5---4---3---2---1---0-----|

e-------------|
B-------------|
G-------------|
D-------------|
A--7--10--6s7-|
E--5--8---4s5-|

e-----------|
B-----------|
G-----------|
D-----------|
A--10--7--7-|
E--8---7--5-|

e-------------|
B-------------|
G-------------|
D-------------|
A--3--5--7----|
E--1--3--5----|

I know its rough, its about as close as i can get.
Tap to rate this tab
 
# A B C D E F G H I J K L M N O P Q R S T U V W X Y Z