Song name
# A B C D E F G H I J K L M N O P Q R S T U V W X Y Z

The Screaming Tribesmen - Two Blind Mice tab

Chords: G, D Cadd9
Intro, Verse and Chorus are G, D and Cadd9
Bridge is Cadd9 and D
and Pre-Chours is G and Cadd9

Intro:
E-33333-22222222-333-----------------------------------|
B-33333-33333333-333-----------------------------------|
G-00000-22222222-000-----------------------------------|
D-00000-00000000-222---0-------------------------------|(X4)
A-22222----------333--2-2------------------------------|
E-33333--------------3---3-0-3-0-----------------------|

Bridge: 
E--3333333333333-22222222-3-3-3------------------------|
B--3333333333333-33333333-3-3-3------------------------|
G--0000000000000-22222222-0-0-0------------------------|
D--2222222222222-00000000-0-2-0------------------------|
A--3333333333333----------2-3-2------------------------|
E-------------------------3---3------------------------|

Verse 1:
E-33333-22222222-333-----------------------------------|
B-33333-33333333-333-----------------------------------|
G-00000-22222222-000-----------------------------------|
D-00000-00000000-222---0-------------------------------|(X4)
A-22222----------333--2-2------------------------------|
E-33333--------------3---3-0-3-0-----------------------|

Pre Chorus:
E-33333-3-33333-3-33333-3-222222222222-----------------|
B-33333-3-33333-3-33333-3-333333333333-----------------|
G-00000-0-00000-0-00000-0-222222222222-----------------|
D-00000-2-00000-2-00000-2-000000000000-----------------|
A-22222-3-22222-3-22222-3------------------------------|
E-33333---33333---33333--------------------------------|

Chorus:
E-33333-22222222-333-----------------------------------|
B-33333-33333333-333-----------------------------------|
G-00000-22222222-000-----------------------------------|
D-00000-00000000-222---0-------------------------------|(X2)
A-22222----------333--2-2------------------------------|
E-33333--------------3---3-0-3-0-----------------------|

Bridge: 
E--3333333333333-22222222-3-3-3------------------------|
B--3333333333333-33333333-3-3-3------------------------|
G--0000000000000-22222222-0-0-0------------------------|
D--2222222222222-00000000-0-2-0------------------------|
A--3333333333333----------2-3-2------------------------|
E-------------------------3---3------------------------|

Verse 2:
E-33333-22222222-333-----------------------------------|
B-33333-33333333-333-----------------------------------|
G-00000-22222222-000-----------------------------------|
D-00000-00000000-222---0-------------------------------|(X4)
A-22222----------333--2-2------------------------------|
E-33333--------------3---3-0-3-0-----------------------|




Pre Chorus:
E-33333-3-33333-3-33333-3-222222222222-----------------|
B-33333-3-33333-3-33333-3-333333333333-----------------|
G-00000-0-00000-0-00000-0-222222222222-----------------|
D-00000-2-00000-2-00000-2-000000000000-----------------|
A-22222-3-22222-3-22222-3------------------------------|
E-33333---33333---33333--------------------------------|

(During Solo, I just play the Chorus 4 times)
E-33333-22222222-333-----------------------------------|
B-33333-33333333-333-----------------------------------|
G-00000-22222222-000-----------------------------------|
D-00000-00000000-222---0-------------------------------|(X4)
A-22222----------333--2-2------------------------------|
E-33333--------------3---3-0-3-0-----------------------|

Bridge: 
E--3-3-3----------------------------------------------|
B--3-3-3----------------------------------------------|
G--0-0-0----------------------------------------------|
D--0-2-0----------------------------------------------|
A--2-3-2----------------------------------------------|
E--3---3----------------------------------------------|


Verse 3:
E-33333-22222222-333-----------------------------------|
B-33333-33333333-333-----------------------------------|
G-00000-22222222-000-----------------------------------|
D-00000-00000000-222---0-------------------------------|(X2)
A-22222----------333--2-2------------------------------|
E-33333--------------3---3-0-3-0-----------------------|

Pre Chorus:
E-33333-3-33333-3-33333-3-222222222222-----------------|
B-33333-3-33333-3-33333-3-333333333333-----------------|
G-00000-0-00000-0-00000-0-222222222222-----------------|
D-00000-2-00000-2-00000-2-000000000000-----------------|
A-22222-3-22222-3-22222-3------------------------------|
E-33333---33333---33333--------------------------------|

Chorus:
E-33333-22222222-333-----------------------------------|
B-33333-33333333-333-----------------------------------|
G-00000-22222222-000-----------------------------------|
D-00000-00000000-222---0-------------------------------|(X4)
A-22222----------333--2-2------------------------------|
E-33333--------------3---3-0-3-0-----------------------|

Bridge: 
E--3333333333333-22222222-3---3-3----------------------|
B--3333333333333-33333333-3---3-3----------------------|
G--0000000000000-22222222-0---0-0----------------------|
D--2222222222222-00000000-0---2-0----------------------|
A--3333333333333----------2---3-2----------------------|
E-------------------------3-----3----------------------|
Tap to rate this tab
 
# A B C D E F G H I J K L M N O P Q R S T U V W X Y Z