Song name
# A B C D E F G H I J K L M N O P Q R S T U V W X Y Z

The Script - The Man That Cant Be Moved tab

hi,

ok first thing this is the first tab i have made. i don't have every little detail down.
the basic chords. Also still working on the bridge. Any corrections etc email me
callum.magill@googlemail.com

Tuning Standard

Intro/Verse (Figure out the timing)

E----------------------------------------|
B----------------------------------------|
G------3-------3------------3-------3----|
D----3----3------3-------3-----3-------3-|
A--1--------1---------0----------0-------|
E----------------------------------------|

E----------------------------------------|
B-------1-------3---------1-------3------|
G----3----3------------3----3------------|
D--1---------1-------1---------1---------|
A----------------------------------------|
E----------------------------------------|

Chorus (Chords are A#, F, Cminor, D#, You can play this anyway you like i usually just
them, add little bits here and there)


   A#    F     Cm    D#
E--------------8--------|
B--3-----3-----8-----8--|
G--3-----2-----8-----8--|
D--3-----3-----10----8--|
A--1-----3-----10----6--|
E--------1-----8--------|

strumming works fine, listen to the song to get the timing. it is very easy to pick up.

the rest of the song will be up soon.

thanks

callum.magill@googlemail.com
Tap to rate this tab
 
# A B C D E F G H I J K L M N O P Q R S T U V W X Y Z