Guitaretab - guitar tabs
Song name
# A B C D E F G H I J K L M N O P Q R S T U V W X Y Z

The Script - Breakeven tab

Tabbed By Bubble Gumm!!!:


E|--------------------------------------|
B|-------9-------9--------9--------9----|
G|-----9---9---9---9----9---9----9---9--|
D|---7----------------------------------|    X4
A|-----------7--------------------------|
E|--------------------7--------9--------|

Bar Chord's:
[ Tab from: http://www.guitaretab.com/t/the-script/188622.html ]
E|-------------------------------------------------------------|
B|---12--12--12--12-----7--7--7--7---2--2--2--2---4--4--4--4---|  For Whole Song!!!
G|---14--14--14--14-----9--9--9--9---4--4--4--4---6--6--6--6---|
D|-------------------------------------------------------------|
A|-------------------------------------------------------------|
E|-------------------------------------------------------------|
Related for Breakeven tab
Advertisement will be closed in 10 seconds