Guitaretab - guitar tabs
Song name
# A B C D E F G H I J K L M N O P Q R S T U V W X Y Z

The Script - The Man Who Cant Be Moved tab

Tabbed by: John Eman
           emanjohn@ymail.com
Tuning:
      Standard Tuning

Rate it!

Intro and Verse
e|------------------------------------------------------------------------|
B|------------------------------------------------------------------------|
G|------------------------------------------5---5--7---5-------5---5-7---5|
D|---8----8------------8----8------------8----8------8-------8---8-----8--|
A|--5----5----5-------5----5----5-----6--------------------6--------------|
E|-6----6----6-------5----5----5------------------------------------------|


Going Back to the corner where I first saw you
Gonna camp in my sleeping bag I'm not gonna move
Got some words on cardboard, got your picture in my hand
saying, "if you see this girl can you tell her where I am"


Some people try to hand me money, they don't understand
I'm not broke I'm just a broken hearted man
I know it makes no sense but what else can I do
How can I move on when I'm still in love with you


Chorus:


 Bb                                 F
Cos if one day you wake up and find that your missing me,
	   Cm                                   Eb
And your heart starts to wonder where on this earth I can be,
	 Bb                                 F
Thinking maybe you'd come back here to the place that we'd meet,
	   Cm                               Eb
And you'd see me waiting for you on the corner of the street.


	Bb        F
So I'm not moving...
	Cm       Eb
I'm not moving.

Intro and Verse
e|------------------------------------------------------------------------|
B|------------------------------------------------------------------------|
G|------------------------------------------5---5--7---5-------5---5-7---5|
D|---8----8------------8----8------------8----8------8-------8---8-----8--|
A|--5----5----5-------5----5----5-----6--------------------6--------------|
E|-6----6----6-------5----5----5------------------------------------------|


Policeman says, "son you can't stay here"
I said, "there's someone I'm waiting for If it's a day, a month, a year"
Gotta stand my ground even if it rains or snows
If she changes her mind this is the first place she will go


Chorus:

[ Tab from: http://www.guitaretab.com/t/the-script/201329.html ]
 Bb                                 F
Cos if one day you wake up and find that your missing me,
	   Cm                                   Eb
And your heart starts to wonder where on this earth I can be,
	 Bb                                 F
Thinking maybe you'd come back here to the place that we'd meet,
	   Cm                               Eb
And you'd see me waiting for you on the corner of the street.


	Bb        F
So I'm not moving...
	Cm       Eb
I'm not moving.


Bridge:

e|-----------------------------------------------------------|
B|--------3-------8------------------------------------------|
G|----5--------------8--------10---10----------10---10-------|(2X)
D|---5----5---5----8--8--8-----10---10----10-----10--10--10--|
A|-------------6--6--6----8------8----8-----8------8---8-----|
E|-3----3---3------------------------------------------------|


e|----------------------------|
B|----------------------------|
G|-----7---7--------10---10---|
D|----8---8---7----10---10----|
A|---6---6---6----8----8------|
E|----------------------------|
                                   (4X)
e|----------------------------|
B|----3---3--------4---4------|
G|-----------3------------3---|
D|---5---5--------5---5-------|
A|--3---3---3----3---3---3----|
E|----------------------------|


Chorus:

Chorus:


 Bb                                 F
Cos if one day you wake up and find that your missing me,
	   Cm                                   Eb
And your heart starts to wonder where on this earth I can be,
	 Bb                                 F
Thinking maybe you'd come back here to the place that we'd meet,
	   Cm                               Eb
And you'd see me waiting for you on the corner of the street.


	Bb        F
So I'm not moving...
	Cm       Eb
I'm not moving.


Outro:


e|------------------------------------------------------------------------|
B|------------------------------------------------------------------------|
G|------------------------------------------5---5--7---5-------5---5-7---5|
D|---8----8------------8----8------------8----8------8-------8---8-----8--|
A|--5----5----5-------5----5----5-----6--------------------6--------------|
E|-6----6----6-------5----5----5------------------------------------------|

Going Back to the corner where I first saw you
Gonna camp in my sleeping bag I'm not gonna move..
Related for The Man Who Cant Be Moved tab
×
Best way to learn
"The Man Who Cant Be Moved"