The Script - You Wont Feel A Thing chords

Highlighted       Show chord diagrams
-------------------------------------------------------------------------------
			     The Script - You Won't Feel A Thing
-------------------------------------------------------------------------------

Tabbed by: Daniel Bell, Dublin, Ireland

Great song off the album Science & Faith :)

Tuning: Standard

Apologies for chord names...

Capo 2nd Fret

Chords Used:

     Dsus2        Asus2      Csus2      E/Bsus2    Gsus2      Esus2
e|-----0------------0----------0----------0----------0----------0-------------|
B|-----3------------3----------3----------3----------3----------0-------------|
G|-----2------------0----------0----------0----------0----------2-------------|
D|-----0------------2----------2----------0----------0----------0-------------|
A|-----0------------0----------3----------2----------2----------2-------------|
E|-----x------------x----------0----------0----------3----------x-------------|

e|------------| <- (0.15-0.28)
B|------------|
G|------------|
D|-----0------|           
A|-----2------|
E|------------|
                  Played through time above and various parts of verse
e|------------|
B|------------|
G|------------|
D|-----0------| 
A|-----2------|
E|-----3------|

Intro: Dsus2, Asus2 (strumming pattern isn't too hard)

Verse 1: Dsus2, Asus2 throughout   (0.55-1.23)

I've been kicked right down     
I've been spat in the face
I've been pulled, weighed down
To the lowest place
I've been lied to, shamed
I have been disgraced
Been ex-communicated from every holy place
I've been beat up and robbed
I've been left for dead
For the way I look 
For the things I said

When trouble thinks it's found us
The world falls down around us 
I promise baby you won't ever
You won't ever feel a thing

Chorus: (1.24-1.56)

E/Bsus2 Gets 1 Strum

Dsus2        Csus2          E/Bsus2
 Cause I will take it on the chin
Gsus2    Dsus2
 Eh,  for you
  Csus2              E/Bsus2    Gsus2
So lay your cuts and bruises over my skin
Dsus2     Csus2            E/Bsus2  Gsus2 
 I promise you won't feel a thing
Dsus2                E/Bsus2
 Cause everything the world could throw
Dsus2                                   Dsus2   Gsus2
 I'll stand in front. I'll take the blow for     you.
Dsus2  Gsus2
 For    you...


Verse 2: Same as Verse 1 (1.57-2.24)

I've been cleared on the street
I've been left in the cold
Had my dreams held up
Had them shot full of holes
I've been laughed at, burnt, beat and butt of the joke
I've been lit up in flames
I have gone down in smoke
I've been stabbed in the back
While they promised the earth
Tried to keep my head high
For all I am worth

Aside I'm double blazing
I know when war is raging
I promise baby you won't ever
You won't ever feel a thing

Chorus: (2.25-2.57)

E/Bsus2 Gets 1 Strum

Dsus2        Csus2          E/Bsus2
 Cause I will take it on the chin
Gsus2    Dsus2
 Eh,  for you
  Csus2              E/Bsus2    Gsus2
So lay your cuts and bruises over my skin
Dsus2     Csus2            E/Bsus2  Gsus2 
 I promise you won't feel a thing
Dsus2                E/Bsus2
 Cause everything the world could throw
Dsus2                                   Dsus2   Gsus2
 I'll stand in front. I'll take the blow for     you.
Dsus2  Gsus2
 For    you...

Bridge: (2.58-3.25)

Esus2 Gsus2

Yeah.
And if I fall here
At least you know my dear that I would die for you
Promise you won't ever feel a thing
And if I fall here
At least you know my dear that I would die for you
Promise you won't ever feel a thing

Chorus: Same as previous (3.26-3.58)

Outro: (3.58-4.33) Same chord structure as chorus

Yeah everything the world could throw
I'll take the sticks, I'll take the stones for you
For you

Enjoy :) comment and rate!

************************************

| /   slide up
| \   slide down
| h   hammer-on
| p   pull-off
| ~   vibrato
| +   harmonic
| x   Mute note
| b   Bend

************************************
Tap to rate this tab
 
# A B C D E F G H I J K L M N O P Q R S T U V W X Y Z