The Script - Nothing tab

Hi guys, I think I figured out the into of this awesome song by The Script, correct me 
if im wrong.

- EvertorN

E|----------------------------------------------------------------------------------|
B|--10-----10-----10-----10-----10-----10-----10-----10-----7-----7-----7-----7-----|
G|----------------------------------------------------------------------------------|
D|------7------7------7------7------7------7------7------7-----7-----7-----7-----7--|
A|----------------------------------------------------------------------------------|
E|----------------------------------------------------------------------------------|



E|--------------------------|
B|--5-----5-----5-----5-----|
G|--------------------------|
D|-----7-----7-----7-----7--|
A|--------------------------|
E|--------------------------|
Tap to rate this tab
 
# A B C D E F G H I J K L M N O P Q R S T U V W X Y Z