Song name
# A B C D E F G H I J K L M N O P Q R S T U V W X Y Z

The Script - Nothing tab

Hi everyone, this is my first tab so hope its not too bad.
Not sure what the tuning is but its standard with the high e string tuned down to C#. 
The Script play it with the Capo on 1st but its easier to hit the harmonics (*) with out 
it. Enjoy :)Feel Free to comment. Josh

C# |------------------------------------------|
B  |------------------------------------------|
G  |--11---11---11---11---11---11---11---11---|
D  |-----9----9----9----9----9----9----9----9-|
A  |------------------------------------------|
E  |--9--------------7---------7--------------|


|-----------------------------------|
|-----------------------------------|
|---8---8---8---6---6---6---6---6---|
|-----9---9---9---9---9---9---9---9-|
|-----------------------------------|
|--11-----------9-------------------|

                          *        *
|----------------------------------12-----|
|-------------------------12--------------|
|--11---11---11---11---11-------11--------|
|-----9----9----9----9--------9-----------|
|-----------------------------------------|
|--9--------------7-----------------------|

                      *     *
|---------------------------7--------|
|---------------------7--------------|
|---8---8---8---6---6-----6----------|
|-----9---9---9---9-----9------------|
|------------------------------------|
|--11-----------9--------------------|
Tap to rate this tab
 
# A B C D E F G H I J K L M N O P Q R S T U V W X Y Z