Song name
# A B C D E F G H I J K L M N O P Q R S T U V W X Y Z

The Script - Science And Faith chords

Highlighted       Show chord diagrams
Science and Faith - The Script
roipolloi.ahoy!

Standard Tuning

Guitar 1
VERSE
D
Tried to break her to a science
      Bm7                         G
in an act of good defiance, I broke her heart.
D
There's a pull up on her theories
      Bm7                         G
As I watch her growing weary, I pulled her apart

D
Having heavy conversations
      Bm7                              G        (Asus4)
about the frivolous constellations of our souls. Oooh
D
We're just trying to find some meaning
      Bm7
in the things that we believe in
       G
but we got some ways to go.
              Asus4/Em                  A
of all of the things that she's ever said
             Asus4/Em                        A
she goes and says something that just knocks me dead.


Chorus
                D                     Bm
You won't find faith or hope down a telescope
                G                     Asus4
You won't find heart and soul in the stars
               D                 Bm
You can break everything down to chemicals
               G                  Asus A
but you can't explain a love like ours.

D    Bm
Ooohhhh
       G                   Asus4  A
It's the way we feel, yeh this is real (2x)

VERSE 2 same as VERSE 1

----------------------------------------------------------

Guitar 2
Tab --SUPER EASY!
(listen to the song first)
INTRO
e----2--3--2------2--3--2------2--3--2-----5--2--3--2------|
B--3-----------3------------3------------------------------|
(alternate)
e----------------------------------------------------------|
B----7--8--7-----7--8--7-----7--8--7------10--7--8--7------|
G--7-----------7-----------7-------------------------------|

VERSE
(Form: Dsus2 - D) Repeat pattern acco. to the length of the verses(you can also pick 
string G at some point)
e------0--------2------0-----2-----0----2---|
B--3-----3--------3------3-----3-----3------|
Pre-Chorus
e--3--3--2--2----------3--3--2--2-----------|
B---------------3----3--------------3---5---|


Enjoy!
Tap to rate this tab
 
# A B C D E F G H I J K L M N O P Q R S T U V W X Y Z