Song name
# A B C D E F G H I J K L M N O P Q R S T U V W X Y Z

The Script - Breakeven tab

Song: Breakeven
By: The Script

Intro:

E-----------------------------|
B-----------------------------|
G----6-6----6-6--6---1-1--2-2-|
D----7-7----7-7--7------------|
A---5-5-----------------------|
E----------5-5--5-5-0-0--2-2--|

E-----------------------------|
B-----------------------------|
G----6-6----6-6--6---1-1--2-2-|
D----7-7----7-7--7------------|
A---5-5-----------------------|
E----------5-5--5-5-0-0--2-2--|

E-----------------------------|
B-----------------------------|
G----6-6----6-6--6---1-1--2-2-|
D----7-7----7-7--7------------|
A---5-5-----------------------|
E----------5-5--5-5-0-0--2-2--|


E--------------------------|
B--------------------------|
G---2--2--2--2--2--2--2--2-|
D--------------------0--0--|
A--------------0--0--------|
E--2--2--0--0--------------|

Chords: F#m,E,A,D

Chorus chord:D,A,E,F#m 4x


tanx! :))

Hope u like it!! here's my EAdd: code_geass_bhenx@yahoo.com  
By: Rudolph Anthony L. Arrogante
Tap to rate this tab
 
# A B C D E F G H I J K L M N O P Q R S T U V W X Y Z