Song name
# A B C D E F G H I J K L M N O P Q R S T U V W X Y Z

The Script - Breakeven tab

E-----------------------------------------------------------------------------|
B-----------------------------------------------------------------------------|
G---7----7----7-----7----------2--------2--------3--------3-------------------|
D-----------------------------------------------------------------------------|
A-6---6-----------------------------------------------------------------------|
E----------6-----6---------1--------1-------3-------3-------------------------|2X

E------------------------------------------------------------------------------|
B------------------------------------------------------------------------------|
G------3-------3-------3-------3-------3------3-------3-------3----------------|
D----------------------------------0-----0-------1--------1--------------------|
A------------------------------------------------------------------------------|
E--3-------3-------1-------1---------------------------------------------------|
Tap to rate this tab
# A B C D E F G H I J K L M N O P Q R S T U V W X Y Z