Song name
# A B C D E F G H I J K L M N O P Q R S T U V W X Y Z

The Script - Im Yours tab

Ok, heres my fist tab so... but i think this is gonna be good :)i know i have some
mistakes like in the fast part i dont know how much time you have to play a note, but 
its a
hint, well I made this tab because i saw a video on youtube and the dude didnĘt put the 
tab :S so well heres the tab, enjoy :)

     -------------------------------------------------|
     -------------------------------------------------|
     ---7--9-10--10------9--10-10-9----7--7--9--10-12-|
     -------------------------------------------------|
     -------------------------------------------------|
     -------------------------------------------------|

     ------------------------------------------------|
     ------------------------------------------------|
     --9--9-------9--9/10/9---7/9/7---5/7/5----4/6/4-|
     --------10--------------------------------------|
     ------------------------------------------------|
     ------------------------------------------------|

                                 sorry I dont know how many
      blend (7)                  times you have to play it
     ------------------------------------------------|
     -------------------------------10--10--10-------|
     ------------------------------------------------|
     -------------9--10--12--------------------------|
     -7----13-------------------8--------------------|
     ------------------------------------------------|



     ----------------------------------------------|
     ------------6----------------9----------------|
     ----------7--------------10-----9--8--10------|
     ------7-------------10------------------------|
     --5-------------7-----------------------------|
     ----------------------------------------------|



     ----------------------------------------------|
     ---8--10--10---------10-10-10-10--------------|
     ----------------------------------------------|
     ----------------------------------------------|
     ----------------------------------------------|
     ----------------------------------------------|
Tap to rate this tab
# A B C D E F G H I J K L M N O P Q R S T U V W X Y Z