Song name
# A B C D E F G H I J K L M N O P Q R S T U V W X Y Z

The Script - Science And Faith tab

first tab , pls rate
The Script : Science And Faith
see this be played- 
http://www.youtube.com/watch?v=yW7njcbAcdw&list=UUGmb_lxOO2OnZHdxnCGD73A&index=2&feature=plcp

copyright to  Cyberdave8 for making this arrangement
I am the one who tabbed it because he doesn't have any tabs




The Script : Science And Faith

intro:

E|-------------------------------------------------------------------|
B|---6-7-6---6-7-6---6-7-6-9-6-7-6---6-7-6---6-7-6---6-7-6-9-6-7-6---|
G|-6-------6-------6---------------6-------6-------6-----------------|
D|-------------------------------------------------------------------|
A|-------------------------------------------------------------------|
E|-------------------------------------------------------------------|



E|-----------------------------------------------------------------|---|
B|---6-7-6---6-7-6---6-7-6-9-6-7-6---6-7-6---6-7-6---6-7-6-9-6-7-6-|---|
G|-6-------6-------6---------------6-------6-------6---------------|---|
D|-----------------------------------------------------------------|---|
A|-----------------------------------------------------------------|---|
E|-----------------------------------------------------------------|---|

verse : (2x)

E|---------------------------------------------------|
B|------------------------------------------------6v-|
G|-6v-------------8v--------------6v-----------------|
D|---------------------------------------------------|
A|---------------------------------------------------|
E|---------------------------------------------------|



E|-----------------------------------------------------------------|
B|----------------------------------6-7-6---6-7-6---6-7-6-9-6-7-6--|
G|-6v-------------8v--------------6-------6-------6----------------|
D|-----------------------------------------------------------------|
A|-----------------------------------------------------------------|
E|-----------------------------------------------------------------|




Pre. Chorus :

E|----------------------------------------|
B|-----9---------9---------9---------9----|
G|---6---6-----6---6-----6---6-----6---6--|
D|-8---------8---------8---------8--------|
A|----------------------------------------|
E|----------------------------------------|

Chorus :

(use power chords)


                A#                     F
You won't find faith or hope down a telescope
                C#
You won't find heart and soul in the stars
               A#               F#
you can break everything down to chemicals?
               C#
but you can't explain a love like ours.

Am#
Ooohhhh
         F#                 C#
It's the way we feel, yeh this is real.
Am#
Ooohhhh
         F#                 C#
It's the way we feel, yeh this is real.

verse II: (2x)

E|---------------------------------------------------|
B|------------------------------------------------6v-|
G|-6v-------------8v--------------6v-----------------|
D|---------------------------------------------------|
A|---------------------------------------------------|
E|---------------------------------------------------|



E|-----------------------------------------------------------------|
B|----------------------------------6-7-6---6-7-6---6-7-6-9-6-7-6--|
G|-6v-------------8v--------------6-------6-------6----------------|
D|-----------------------------------------------------------------|
A|-----------------------------------------------------------------|
E|-----------------------------------------------------------------|

Pre Chorus :

E|----------------------------------------|
B|-----9---------9---------9---------9----|
G|---6---6-----6---6-----6---6-----6---6--|
D|-8---------8---------8---------8--------|
A|----------------------------------------|
E|----------------------------------------|

Chorus :


               Am#                     F#
You won't find faith or hope down a telescope
                C#
You won't find heart and soul in the stars
               Am#                   F#
you can break everything down to chemicals
               C#
but you can't explain a love like ours.

Am#
ooohhhh
         F#                C#
it's the way we feel, yeh this is real.
Am#
ooohhhh
         F#                 C#
it's the way we feel, yeh this is real.

Am#
of all of the things that she's ever said
F#                                     G#
she goes and says something that just knocks me dead
               Am #                   F#
You won't find faith or hope down a telescope
               C#
You won't find heart and soul in the stars
               Am#                F#
you can break everything down to chemicals
               C#
but you can't explain a love like ours.

Am#
Ooohhhh
         F #               C#
It's the way we feel, yeh this is real
Am#
Ooohhhh
         F#                C#
It's the way we feel, yeh this is real

Thanks , again copyright to Cyberdave8.
Tap to rate this tab
 
# A B C D E F G H I J K L M N O P Q R S T U V W X Y Z