Song name
# A B C D E F G H I J K L M N O P Q R S T U V W X Y Z

The Script - Six Degrees Of Separation tab

-------------------------------------------------------------------------------
                             SIX DEGREES OF SEPARATION - The Script
-------------------------------------------------------------------------------
Tabbed by: Butch R

Tuning: Standard Tuning (Capo 9)

VERSE 1
e|--5---5---5---5---5---5---5---5--------------------------------------------|
B|--3---3---3---3---3---3---3---3---5---5---5---5---7---7---7---7------------|
G|----0---0---0---0---0---0---0-----0---0---0---0---0---0---0---0------------|
D|--5---------------4-----------------0---0---0---0---0---0---0---0----------|
A|----------------------------------3---------------5------------------------|
E|---------------------------------------------------------------------------| 2x

PRECHORUS
e|---------------------------------------------------------------------------|
B|--5---5---5---5---7---7---7---7---3---3---3---3---3---3---3---3------------|
G|--0---0---0---0---0---0---0---0---0---0---0---0---0---0---0---0------------|
D|----0---0---0---0---0---0---0---0---0---0---0---0---0---0---0---0----------|
A|--3---------------5--------------------------------------------------------|
E|----------------------------------3---------------2------------------------| 

e|---------------------------------------------------------------------------|
B|--5---5---5---5---7---7---7---7---3---3---3---3---3---3---3---3------------|
G|--0---0---0---0---0---0---0---0---0---0---0---0---0---0---0---0------------|
D|----0---0---0---0---0---0---0---0---0---0---0---0---0---0---0--------------|
A|--3---------------5--------------------------------------------------------|
E|----------------------------------3----------------------------------------|


VERSE 1
e|--5---5---5---5---5---5---5---5--------------------------------------------|
B|--3---3---3---3---3---3---3---3---5---5---5---5---7---7---7---7------------|
G|----0---0---0---0---0---0---0-----0---0---0---0---0---0---0---0------------|
D|--5---------------4-----------------0---0---0---0---0---0---0---0----------|
A|----------------------------------3---------------5------------------------|
E|---------------------------------------------------------------------------| 2x

PRECHORUS
e|---------------------------------------------------------------------------|
B|--5---5---5---5---7---7---7---7---3---3---3---3---3---3---3---3------------|
G|--0---0---0---0---0---0---0---0---0---0---0---0---0---0---0---0------------|
D|----0---0---0---0---0---0---0---0---0---0---0---0---0---0---0---0----------|
A|--3---------------5--------------------------------------------------------|
E|----------------------------------3---------------2------------------------| 

e|---------------------------------------------------------------------------|
B|--5---5---5---5---7---7---7---7---3---3---3---3---3---3---3---3------------|
G|--0---0---0---0---0---0---0---0---0---0---0---0---0---0---0---0------------|
D|----0---0---0---0---0---0---0---0---0---0---0---0---0---0---0--------------|
A|--3---------------5--------------------------------------------------------|
E|----------------------------------3----------------------------------------|

CHORUS (STRUMMING)
   Em7 Cadd9  G    D
e|--3----3----3----3------|
B|--3----3----3----3------|
G|--0----0----0----2------|
D|--2----x----0----0------|
A|--2----3----x----0------|
E|--0---------3----2------| 4x

BRIDGE 1 (STRUMMING): No, no, there ain't no help, it's every man for himself
  Em7 Cadd9  G    D
e|--3----3----3----3------|
B|--3----3----3----3------|
G|--0----0----0----2------|
D|--2----x----0----0------|
A|--2----3----x----0------|
E|--0---------3----2------| 2x

VERSE 3
e|--5---5---5---5---5---5---5---5--------------------------------------------|
B|--3---3---3---3---3---3---3---3---5---5---5---5---7---7---7---7------------|
G|----0---0---0---0---0---0---0-----0---0---0---0---0---0---0---0------------|
D|--5---------------4-----------------0---0---0---0---0---0---0---0----------|
A|----------------------------------3---------------5------------------------|
E|---------------------------------------------------------------------------| 2x

PRECHORUS
e|---------------------------------------------------------------------------|
B|--5---5---5---5---7---7---7---7---3---3---3---3---3---3---3---3------------|
G|--0---0---0---0---0---0---0---0---0---0---0---0---0---0---0---0------------|
D|----0---0---0---0---0---0---0---0---0---0---0---0---0---0---0---0----------|
A|--3---------------5--------------------------------------------------------|
E|----------------------------------3---------------2------------------------| 

e|---------------------------------------------------------------------------|
B|--5---5---5---5---7---7---7---7---3---3---3---3---3---3---3---3------------|
G|--0---0---0---0---0---0---0---0---0---0---0---0---0---0---0---0------------|
D|----0---0---0---0---0---0---0---0---0---0---0---0---0---0---0--------------|
A|--3---------------5--------------------------------------------------------|
E|----------------------------------3----------------------------------------|

CHORUS (STRUMMING)
   Em7 Cadd9  G    D
e|--3----3----3----3------|
B|--3----3----3----3------|
G|--0----0----0----2------|
D|--2----x----0----0------|
A|--2----3----x----0------|
E|--0---------3----2------| 4x

BRIDGE 2 (STRUMMING): No, there’s no starting over without finding closure...
  Em7    D    G  Cadd9
e|--3----2----3----3------|
B|--3----3----3----3------|
G|--0----2----0----0------|
D|--2----0----0----x------|
A|--2---------x----3------|
E|--0----2----3-----------| 2x

CHORUS AD OUTRO (STRUMMING)
   Em7 Cadd9  G    D
e|--3----3----3----3------|
B|--3----3----3----3------|
G|--0----0----0----2------|
D|--2----x----0----0------|
A|--2----3----x----0------|
E|--0---------3----2------| 


************************************

| /   slide up
| \   slide down
| h   hammer-on
| p   pull-off
| ~   vibrato
| +   harmonic
| x   Mute note
| b   Bend
| pb  Pre-bend
| br  Bend release
| pbr Pre-bend release
| brb Bend release bend

************************************
Tap to rate this tab
# A B C D E F G H I J K L M N O P Q R S T U V W X Y Z