Song name
# A B C D E F G H I J K L M N O P Q R S T U V W X Y Z

The Script - Long Gone And Moved On tab

Intro/Main Riff
e|------------5--------------|-----------5---------------|
B|------5--------5-----5-----|-----5--------5-----7--5---|
G|---7-----7--------7-----7--|--7-----7--------7---------|
D|---------------------------|---------------------------|
A|---------------------------|---------------------------|
E|---------------------------|---------------------------|

e|------------5--------------|---------------------------|
B|------5--------5-----5-----|--8-----8--7-----7--5------|
G|---7-----7--------7-----7--|-----7--------7--------7---|
D|---------------------------|---------------------------|
A|---------------------------|---------------------------|
E|---------------------------|---------------------------|
Tap to rate this tab
# A B C D E F G H I J K L M N O P Q R S T U V W X Y Z