Song name
# A B C D E F G H I J K L M N O P Q R S T U V W X Y Z

The Script - Hall Of Fame tab

E|-3-3-2-2|-0---0--|3-------|-----0-0|-3-2-2-0|---0---3|--------|---3-3-3|-3-3-5-0|-0--3---|
B|--------|---3----|---3--0-|-1-3----|--------|-3------|-3---0-1|-3------|--------|------3-|
G|--------|--------|--------|--------|--------|--------|--------|--------|--------|--------|
D|--------|--------|--------|--------|--------|--------|--------|--------|--------|--------|
A|--------|--------|--------|--------|--------|--------|--------|--------|--------|--------|
E|--------|--------|--------|--------|--------|--------|--------|--------|--------|--------|

E|-------0|-0-3-2-2|-0---0--|-3------|--------|--------|-0------|
B|-0-1-3--|--------|---3----|---3--0-|-0-0-0-3|-3-3-5-3|--------|
G|--------|--------|--------|--------|--------|--------|--------|
D|--------|--------|--------|--------|--------|--------|--------|
A|--------|--------|--------|--------|--------|--------|--------|
E|--------|--------|--------|--------|--------|--------|--------|
Tap to rate this tab
# A B C D E F G H I J K L M N O P Q R S T U V W X Y Z