Song name
# A B C D E F G H I J K L M N O P Q R S T U V W X Y Z

The Seatbelts - Bindy tab

-------------------------------------------------------------------------------
			   BINDY - The Seatbelts
-------------------------------------------------------------------------------
Tabbed by: Matt Silverman
Email: funkatram@hotmail.com

Tuning: Standard

This is really all there is to it.
It's played an octave higher towards the end.

Sax:
e|--3/5-3/5-----3-3-5-3h4p3-------3----------------------|
B|----------5-6-------------6-5-6---6p7h6-5-3-3/5-3-2-2--|
G|-------------------------------------------------------|
D|-------------------------------------------------------|
A|-------------------------------------------------------|
E|-------------------------------------------------------|


Flute:
e|------------------------1-|-3-1h3p1-----|-4-1-----|
B|-2--------2-------2-3-5---|---------5-3-|-----5-3-|
G|---3-2-3----3-2-3---------|-------------|---------|
D|--------------------------|-------------|---------|
A|--------------------------|-------------|---------|
E|--------------------------|-------------|---------|

| /  slide up
| \  slide down
| h  hammer-on
| p  pull-off
| ~  vibrato
| +  harmonic
| x  Mute note
===============================================================================
Tap to rate this tab
 
# A B C D E F G H I J K L M N O P Q R S T U V W X Y Z