Song name
# A B C D E F G H I J K L M N O P Q R S T U V W X Y Z

The Seatbelts - Piano Black tab

e|-----------------------------------------------------------------------------|
B|------------------------------------------------------------4---6--7-6--4--7-|
G|-3---4--6-4--3--6---4--3---6-4--3---6---4--3---6-4--3---6--------------------|
D|-----------------------------------------------------------------------------|
A|-----------------------------------------------------------------------------|
E|-----------------------------------------------------------------------------|

e|-----------------------------------------------------------------------------|
B|-3---6--4-3--4-----3---6--4-3--4-----3---4---6---7---------5---3---2--3------|
G|----------------2-----------------2-------------------------------------4----|
D|-----------------------------------------------------------------------------|
A|-----------------------------------------------------------------------------|
E|-----------------------------------------------------------------------------|

e|-----------------------------------------------------------------------------|
B|--------------------5---4----------------------------------------------------|
G|-3------------------4---4----------------------------------------------------|
D|----5--4--2---------4---4----------------------------------------------------|
A|-------------5--4------------------------------------------------------------|
E|-----------------------------------------------------------------------------|
Tap to rate this tab
# A B C D E F G H I J K L M N O P Q R S T U V W X Y Z