Song name
# A B C D E F G H I J K L M N O P Q R S T U V W X Y Z

The Seatbelts - Time To Know tab

For years I puzzled over the oddly-timed strumming pattern and crazy
jazz chords that are an integral part of this piece of music.
Finally just this morning I sat down with my trusty copy of CoolEdit
and really LISTENED to the chords individually. I think I figured most
of them out with a fair degree of accuracy with a few possible mistakes
in exact fingering and intonation. Ultimately you should let your own ear
be the judge.

I've tabbed out the chords since I'm horrible with actual chord names.
This song got an intermediate rating by me because of the odd chords utilized and the 
strumming pattern.

INTRO:

E|-5--5--5--3--2--5--2--0--6--4--6--4--3--3-|
B|-7--4--6--4--3--6--3--0--8--6--8--6--5--6-|
G|-6--3--7--5--4--7--4--2--7--5--7--5--4--6-|
D|-7--5--M--M--M--M--M--M--8--6--8--6--5--5-|
A|-5--3--M--M--M--M--M--M--6--4--6--4--3--4-|
E|-------6--4--3--6--3--3-------------------|


FIRST VERSE:

E|-3--1--4--4--3--4--2--4--2--2--4--2--4--3--1--1--6--4-|
B|-5--3--4--6--5--5--2--5--2--4--6--4--6--4--1--2--7--4-|
G|-4--2--5--5--4--6--3--6--3--4--6--4--6--5--2--3--8--5-|
D|-5--3--6--6--5--6--4--6--4--4--6--4--6--5--3--3--8--5-|
A|-3--1--6--4--3--4--4--4--4--2--4--2--4--3--3--1--6--6-|
E|-------4-----------2-----2-----------------1--------4-|

E|-6--4--4--2--4--6--4--6-|
B|-7--4--5--2--4--7--4--7-|
G|-8--5--6--3--5--8--5--8-|
D|-8--6--6--4--5--8--5--8-|
A|-6--6--4--4--6--6--6--6-|
E|----4-----2--4-----4----|

This is just the intro. I have to figure out the rest soon.
Keep in mind this is my first attempt at posting a tab so don't
be too harsh. Hope you enjoy.
Tap to rate this tab
# A B C D E F G H I J K L M N O P Q R S T U V W X Y Z