Song name
# A B C D E F G H I J K L M N O P Q R S T U V W X Y Z

The Sedan Vault - Communism By The Gallon Acoustic tab

This is the song as found here:
http://www.abconcerts.be/nl/abtv/p/detail/the-sedan-vault-plays-communism-by-the-gallon

MAIN RIFF

e 2--2--2-----2--2--2-------2--2--2-----2----------|
B 0-----------0---------3---0----------------------|
G ---2-----------2--0----------2--------0----------|
D ------2-------------------------2----------------|
A -------------------------------------------------|
E -------------------------------------------------|


BREAKDOWN

e  3-----0-------|
B  ---3-----2--0-|
G  --------------|
D  --------------|
A  --------------|
E  --------------|


LYRICS
Aaah                                                         (main riff)

We spread communism by the gallon
As we force you to give up on property                       (main riff)
We won't just back down no we won't rather die than surender

We spread communism by the gallon
As we force you to give up on property                       (main riff)
We won't just back down no we won't rather die than surender

As the roof fell down         (breakdown)

As the roof fell down         (breakdown)

We wont call this a violant revolution
Well I'm not as you think                                    (main riff)
Giving no idea then you can just walk the hell out of here now

We spread communism by the gallon
As we force you to give up on property                       (main riff)
We won't just back down no we won't rather die than surender

As the roof fell down         (breakdown)

As the roof fell down         (breakdown)
Tap to rate this tab
# A B C D E F G H I J K L M N O P Q R S T U V W X Y Z