Guitaretab - guitar tabs
Song name
# A B C D E F G H I J K L M N O P Q R S T U V W X Y Z

The Seeds - Pushin Too Hard tab

Ok this is all by ear but i know its correct.Its pretty basic.


This comes right after the organ solo in the song.

E----------------------------------------7-7-7-7-7-------|
B--------------------------------------------------10-7--|
G--------------------------------------------------------|
D---------7---7-9-9-9-9-7---9-9-9-9-9-7------------------|
A-------9---9-------------9-------------9----------------|
E--7-10--------------------------------------------------|
[ Tab from: http://www.guitaretab.com/t/the-seeds/155575.html ]
E---------------------------7-10-7-----------------------------|
B----------------------------------10-7------------------------|
G---------------------------------------9-7---7-9b-9b-9b-7-----|
D---------7---7-9-9-9-9-7-------------------9---------------9--|
A-------9---9-------------9------------------------------------|
E--7-10--------------------------------------------------------|

E--------------------------------------|
B--------------------------------------|
G--------------------------------------|
D------7--------7--------7--------7----|
A----9---9----9---9----9---9----9---9--|
E--7--------7--------7--------7--------|

Well, thats it, hope you enjoy!!
Related for Pushin Too Hard tab