Song name
# A B C D E F G H I J K L M N O P Q R S T U V W X Y Z

The Send - Dawn And Dusk tab

Song: Dawn And Dusk
Band: The Send
Album: Cosmos

Intro/Verse Part 1
Figure 1
D#|---------------------------------------------------------------------|
A#|---------------------------------------------------------------------|
F#|-----7---7-7-x-x-7---7---------------------------7---7-7-x-x-7---7---|
C#|-----0---0-0-x-x-0---0-----0---0-0-x-x-0---0-----0---0-0-x-x-0---0---|
G#|-----5---5-5-x-x-5---5-----2---2-2-x-x-2---2-----5---5-5-x-x-5---5---|
D#|---7-7-7-7-7-x-x-7-7 7---3-3-3-3-3-x-x-3-3-3---7-7-7-7-7-x-x-7-7-7---|

Figure 2
D#|-------------------|
A#|-------------------|
F#|-------------------|
C#|-----0-2-4-5-4-0---|
G#|-----2-x-x-x-x-x---|
D#|---3-3-3-3-3-3-3---|

Verse Part 2 (play Figure 1, but instead of playing Figure 2, strum Em into A)

Repeat Verse Parts 1 and 2

Chorus x1 (listen to song for pattern)
D - D2 (add 4 on C# string) - Em - G
D - D2 - Em - A

Repeat Intro/Verse Figures 1 & 2 x1
Repeat Verse Parts 1 & 2 x1
Repeat Chorus x1

Bridge
Em - G - A
Em - G - A
Em - G - A
Em - G - A
D - D2 - Em - A

Repeat Chorus x2

End on:
D#|-------|
A#|-------|
F#|---7~--|
C#|---0~--|
G#|---5~--|
D#|---7~--|
Tap to rate this tab
# A B C D E F G H I J K L M N O P Q R S T U V W X Y Z