Song name
# A B C D E F G H I J K L M N O P Q R S T U V W X Y Z

The Send - Need tab

     Q    Q    Q    Q     
E||--4--------------4----|
B||-------4----4---------|
G||----------------------|
D||----------------------|
A||----------------------|
D||----------------------|


  Q    Q    Q    Q       Q    Q    Q     
--6----7----4----6----|--7----6----4----|
----------------------|-----------------|
----------------------|-----------------|
----------------------|-----------------|
----------------------|-----------------|
----------------------|-----------------|


  Q    Q    Q    Q       Q    Q    Q     
--4--------------4----|--6----7----6----|
-------4----4---------|-----------------|
----------------------|-----------------|
----------------------|-----------------|
----------------------|-----------------|
----------------------|-----------------|


  Q     Q       Q     Q    Q    Q     
--7----11----|-----------------------|
-------------|--9---------------9----|
-------------|-------------8---------|
-------------|-------11--------------|
-------------|-----------------------|
-------------|-----------------------|


  Q    Q       Q    Q    Q    Q     
--6----7----|--4----6----7----4----|
------------|----------------------|
------------|----------------------|
------------|----------------------|
------------|----------------------|
------------|----------------------|


  Q    Q    Q    Q      
------------2---------||
--4----2---------4----||
----------------------||
----------------------||
----------------------||
----------------------||
Tap to rate this tab
# A B C D E F G H I J K L M N O P Q R S T U V W X Y Z