Song name
# A B C D E F G H I J K L M N O P Q R S T U V W X Y Z

The Sepia Trees - The Fields chords

Highlighted       Show chord diagrams
*The Sepia Trees is a new band from Ottawa, Ontario. Check out some of their stuff on 
Youtube, here's a link: http://www.youtube.com/channel/UCLntdigiElMIbFaEvopA4UA.  Any 
questions or comments on the tab, email me at brynnemond@gmail.com.*

Capo 2
Standard Tuning

e|----0----0-----3-----0-----0----3-----0-----0---3-----0----0----|
B|------0----0-----0-3-----0---0----0-3-----0---0---0-3----0---0--|
G|----------------------------------------------------------------|
D|----------------------------------------------------------------|
A|----------------------------------------------------------------|
E|----------------------------------------------------------------|


e|--3-----0-------------------------------------------------------|
B|----0-3---------------------------------------------------------|
G|----------------------------------------------------------------|
D|----------------------------------------------------------------|
A|----------------------------------------------------------------|
E|----------------------------------------------------------------|



Em                          G
Where I grew up there was a field in the backyard,

   Em                                       G
With big green trees in two and threes, and bells instead of flowers

Em                                  G
Took a walk on a windy day, and the breeze blew us to another place

Em                                          G
Growing up on some strange shore, where the snow is the roof and the grass

Is the floor

Em, G

Em                      G
Ran away into a forest, down a steep slope and into a field

Em                                      G
A girl with a knife told me to run so I ran and I ran into the setting sun

Em
I tried to tell the preacher I didn't fit in,

   G
By singing a ballad 'The song outshines the sin'

       Em
But he said that I should repent while I still could,

G
Before the lightning struck me where I stood.

Em                                      G
So on I go through the endless fields I don't know where I'm going but I

know I'll get there

    Em                                     G
And if I get lost well, well you know that I don't care.
Tap to rate this tab
# A B C D E F G H I J K L M N O P Q R S T U V W X Y Z