Song name
# A B C D E F G H I J K L M N O P Q R S T U V W X Y Z

The September When - Keep The Spirit tab

A nice and easy song by September When.
Standard Tuning.

Transcribed by GuitarEspen

Official website:
http://www.warnermusic.no/artister/theseptemberwhen/

                     Repeat 5 times
E|--------------------------------|
B|-----2-----2-----3-2-0------0---|
G|---------------2--------1-2-----|
D|---2-----2---0------------------|
A|-0-----0------------------------|
E|--------------------------------|
							
  [0:36]
E|------------------2---------------------------------------------------------------------------|
B|------------------3------3p2-3p2-3p2-3p2-3p2-3p2-3p2-3p2-3p2-3p2-3p2-----------3-2-0-----0----|
G|-----2-------2----2----------------------------------------------------4-2-----------1-2------|
D|---4---4---2---2------------------------------------------------------------------------------|
A|-0--------------------------------------------------------------------------------------------|
E|---------0------------------------------------------------------------------------------------|
 
 [0:50]				     [0:58] I simplified the guitarpart here    
E|----------------------------------------------------------------------------------------------|
B|-0h2----2----3-2-0-----0----0h2-0-------------------------------------------------------------|
G|-------------------1-2----------------------------------------------------------------------2-|
D|-----------------------------------5-5-5-5--7-7-7-7--5-5-5-5--7-7-7-7--5-5-5-5--3-3-3-3-----2-|
A|-----------------------------------5-5-5-5--7-7-7-7--5-5-5-5--7-7-7-7--5-5-5-5--3-3-3-3-----0-|
E|-----------------------------------3-3-3-3--5-5-5-5--3-3-3-3--5-5-5-5--3-3-3-3--1-1-1-1-------|

 [1:11]		  Repeat 5 Times
E|-----------------------------|
B|-0h2----2------3-2-0-----0---|
G|-------------2-------1-2-----|
D|-----------0-----------------|
A|-----------------------------|
E|-----------------------------|

 [1:44]
E|------------------2---------------------------------------------------------------------------|
B|------------------3------3p2-3p2-3p2-3p2-3p2-3p2-3p2-3p2-3p2-3p2-3p2-----------3-2-0-----0----|
G|-----2-------2----2----------------------------------------------------4-2-----------1-2------|
D|---4---4---2---2------------------------------------------------------------------------------|
A|-0--------------------------------------------------------------------------------------------|
E|---------0------------------------------------------------------------------------------------|

 [1:59]
E|----------------------------------------------------------------------------------------------|
B|-0h2----2----3-2-0-----0----0h2-0-------------------------------------------------------------|
G|-------------------1-2----------------------------------------------------------------------2-|
D|-----------------------------------5-5-5-5--7-7-7-7--5-5-5-5--7-7-7-7--5-5-5-5--3-3-3-3-----2-|
A|-----------------------------------5-5-5-5--7-7-7-7--5-5-5-5--7-7-7-7--5-5-5-5--3-3-3-3-----0-|
E|-----------------------------------3-3-3-3--5-5-5-5--3-3-3-3--5-5-5-5--3-3-3-3--1-1-1-1-------|

 [2:19]	Also simplified here           Repeat 3 Times
E|--------------------------------------------------|
B|--------------------------------------------------|
G|-------------------------7-7-7-7-7-7-7-7-7-7-7-7--|
D|-5-5-5-5-5-5-5-5-5-5-5-5-7-7-7-7-7-7-7-7-7-7-7-7--|
A|-5-5-5-5-5-5-5-5-5-5-5-5-5-5-5-5-5-5-5-5-5-5-5-5--|
E|-3-3-3-3-3-3-3-3-3-3-3-3--------------------------|

 [2:39]
E|-----------------------------|
B|-----------------------------|
G|-------------------------2---|
D|-5-5-5-5-5-5-5-5-5-5-5-5-2---|
A|-5-5-5-5-5-5-5-5-5-5-5-5-0---|
E|-3-3-3-3-3-3-3-3-3-3-3-3-----|

  
 [2:46]			        Repeat 4 Times
E|--------------|----------------------------|
B|-3-2-0-----0--|-0h2----2------3-2-0-----0--|
G|-------1-2----|-------------2-------1-2----|
D|--------------|-----------0----------------|
A|--------------|----------------------------|
E|--------------|----------------------------|

 [3:17]
E|------------------2---------------------------------------------------------------------------|
B|------------------3------3p2-3p2-3p2-3p2-3p2-3p2-3p2-3p2-3p2-3p2-3p2-----------3-2-0-----0----|
G|-----2-------2----2----------------------------------------------------4-2-----------1-2------|
D|---4---4---2---2------------------------------------------------------------------------------|
A|-0--------------------------------------------------------------------------------------------|
E|---------0------------------------------------------------------------------------------------|

 [3:31]           Repeat 3 Times
E|-----------------------------|
B|-0h2----2------3-2-0-----0---|
G|-------------2-------1-2-----|
D|-----------0-----------------|
A|-----------------------------|
E|-----------------------------|

 [3:53]      Repeat until fadeout
E|------------------------------|
B|------------------------------|
G|------------------------------|
D|-5-5-5-5-5-5-3/7-7-7-7-7-7-7--|
A|-5-5-5-5-5-5-5/7-7-7-7-7-7-7--|
E|-3-3-3-3-3-3-5/5-5-5-5-5-5-5--|
Tap to rate this tab
# A B C D E F G H I J K L M N O P Q R S T U V W X Y Z