The Servant - Cells tab

The Servant - Cells

Hi, this my first tab.
This is only chorus - solo, because it's main part of song and 
the rest of song is written in Guitar Pro tab here on UG, 
so you can download it and teach the rest.

s = slide
~ = let ring

Play it with distortion
1----------------------------------------------------|
2----------------------------------------------------|
3------5--------5--------5------s7--------9-5------5-|
4--5-7---7--5-7---7--5-7----5-7----7--5-7------5-7---|
5----------------------------------------------------|
6----------------------------------------------------|

1----------------------------------------------------|
2-------------------12-13-12--8--5-6-5---------------|
3------s7--------5---------------------5~------------|
4--5-7---7--5-7--------------------------------------|
5----------------------------------------------------|
6----------------------------------------------------|

I think, that it sounds great. If you have any correction or question, 
there is my mail: filip.email@seznam.cz
Tap to rate this tab
 
# A B C D E F G H I J K L M N O P Q R S T U V W X Y Z