Song name
# A B C D E F G H I J K L M N O P Q R S T U V W X Y Z

The Servant - Cells tab

The Servant - Cells

Tabbed by: killer000sp
Email: killer000sp@gmail.com

s = slide
~ = let ring

!!! Each tact has same lenght !!!


Used chords

1---0----|---0----|---0----|---1----|---3----|---0----|---0----|
2---1----|---1----|---0----|---1----|---3----|---0----|---0----|
3---2----|---2----|---1----|---2----|---4----|---1----|---0----|
4---2----|---3----|---2----|---3----|---5----|---2----|---2----|
5---0----|---0----|---0----|---3----|---5----|---2----|---2----|
6--------|--------|--------|---1----|---3----|---0----|---0----|
    Am     F7M/A     E/A       F        G        E       Em





INTRO (equals to BRIDGE)
:: Guitar 1 :: Intro (acoustic / clean) :: (starts at 00:00) :: 2x ::

1---0--0--0--0-|-0--0--0--0-|-0--0--0--0-|-0--0--0--0-|
2---1--1--1--1-|-1--1--1--1-|-0--0--0--0-|-1--1--1--1-|
3---2--2--2--2-|-2--2--2--2-|-1--1--1--1-|-2--2--2--2-|
4---2--2--2--2-|-3--3--3--3-|-2--2--2--2-|-2--2--2--2-|
5---0--0--0--0-|-0--0--0--0-|-0--0--0--0-|-0--0--0--0-|
6--------------|------------|------------|------------|
       Am           F7M/A         E/A          Am


VERSE
:: Guitar 1 :: Verse (acoustic / clean) :: (starts at 00:14) :: 3x ::

1---0--0--0--0-|-0--0--0--0-|-0--0--0--0-|-0--0--0--0-|
2---1--1--1--1-|-1--1--1--1-|-0--0--0--0-|-1--1--1--1-|
3---2--2--2--2-|-2--2--2--2-|-1--1--1--1-|-2--2--2--2-|
4---2--2--2--2-|-3--3--3--3-|-2--2--2--2-|-2--2--2--2-|
5---0--0--0--0-|-0--0--0--0-|-0--0--0--0-|-0--0--0--0-|
6--------------|------------|------------|------------|
       Am           F7M/A         E/A          Am

1---0--0--0--0-|-0--0--0--0-|-0--0--0--0-|-0--0--0--0-|-0--0--0--0-|
2---1--1--1--1-|-1--1--1--1-|-0--0--0--0-|-0--0--0--0-|-0--0--0--0-|
3---2--2--2--2-|-2--2--2--2-|-1--1--1--1-|-1--1--1--1-|-1--1--1--1-|
4---2--2--2--2-|-3--3--3--3-|-2--2--2--2-|-2--2--2--2-|-2--2--2--2-|
5---0--0--0--0-|-0--0--0--0-|-0--0--0--0-|-2--2--2--2-|-2--2--2--2-|
6--------------|------------|------------|------------|------------|
       Am           F7M/A         E/A          E            E


:: Guitar 2 :: Verse (Distortion + Wah) :: (starts at 00:40) :: 1x ::
1--------------|------------|------------|------------|
2--------------|------------|------------|------------|
3--------------|------------|------------|------------|
4---7--7--7--7-|-7--7--7--7-|-6--6--6--6-|-7--7--7--7-|
5---7--7--7--7-|-8--8--8--8-|-7--7--7--7-|-7--7--7--7-|
6---5--5--5--5-|-5--5--5--5-|-5--5--5--5-|-5--5--5--5-|

1--------------|------------|------------|------------|----------|
2--------------|------------|------------|------------|----------|
3--------------|------------|------------|-1--1--1--1-|-1-1-1--1-|
4---7--7--7--7-|-7--7--7--7-|-6--6--6--6-|-2--2--2--2-|-2-2-2--2-|
5---7--7--7--7-|-8--8--8--8-|-7--7--7--7-|-2--2--2--2-|-2-2-2--2-|
6---5--5--5--5-|-5--5--5--5-|-5--5--5--5-|-0--0--0--0-|-0-0-0--0-|


CHORUS
:: Guitar 1 :: Chorus (acoustic / clean) :: (starts at 00:58) :: 2x ::

1---0--0--0--0-|-0--0--0--0-|-1--1--1--1-|-1--1--1--1-|
2---1--1--1--1-|-1--1--1--1-|-1--1--1--1-|-1--1--1--1-|
3---2--2--2--2-|-2--2--2--2-|-2--2--2--2-|-2--2--2--2-|
4---2--2--2--2-|-2--2--2--2-|-3--3--3--3-|-3--3--3--3-|
5---0--0--0--0-|-0--0--0--0-|-3--3--3--3-|-3--3--3--3-|
6--------------|------------|-1--1--1--1-|-1--1--1--1-|
       Am           Am            F            F

1---3--3--3--3-|-3--3--3--3-|-0--0--0--0-|-1--1--1--1-|
2---3--3--3--3-|-3--3--3--3-|-0--0--0--0-|-1--1--1--1-|
3---4--4--4--4-|-4--4--4--4-|-0--0--0--0-|-2--2--2--2-|
4---5--5--5--5-|-5--5--5--5-|-2--2--2--2-|-3--3--3--3-|
5---5--5--5--5-|-5--5--5--5-|-2--2--2--2-|-3--3--3--3-|
6---3--3--3--3-|-3--3--3--3-|-0--0--0--0-|-1--1--1--1-|
        G            G            Em           F


:: Guitar 2 :: Chorus (Distortion) :: (starts at 00:58) :: 2x ::
1---------------|-------------|--------------|--------------|
2---------------|-------------|--------------|--------------|
3-------5-------|-5------5~---|-----s7-------|-9-5-----5~---|
4---5-7---7-5-7-|--7-5-7------|-5-7----7-5-7-|-----5-7------|
5---------------|-------------|--------------|--------------|
6---------------|-------------|--------------|--------------|

1---------------|-------------|-7-8-7--------|--------------|
2---------------|-------------|-------8~-5-6-|-5------------|
3-------5-------|-s7-------5~-|--------------|---5~---------|
4---5-7---7-5-7-|----7-5-7----|--------------|--------------|
5---------------|-------------|--------------|--------------|
6---------------|-------------|--------------|--------------|


SONG CONTINUES IN THIS ORDER:
- BRIDGE 1x
- VERSE  3x
- CHORUS 3x
- CHORUS 2x (only Guitar 1 - quietly)
- CHORUS 4x
- OUTRO (equals to CHORUS)


I think, that it sounds great. If you have any corrections or questions,
write me a message, or just add some comment. And don't forget to rate...


----------

If you want to play this song without electric guitar (without Guitar 2), you can play 
it with chords only...


Use these chords like before...:

1---0----|---0----|---0----|---1----|---3----|---0----|---0----|
2---1----|---1----|---0----|---1----|---3----|---0----|---0----|
3---2----|---2----|---1----|---2----|---4----|---1----|---0----|
4---2----|---3----|---2----|---3----|---5----|---2----|---2----|
5---0----|---0----|---0----|---3----|---5----|---2----|---2----|
6--------|--------|--------|---1----|---3----|---0----|---0----|
    Am     F7M/A     E/A       F        G        E       Em


VERSE

    Am                   F7M/A
It'll all click when the mortgage clears
  E/A              Am
All our fears will disappear
    Am               F7M/A
Now you go to bed I'm staying here
  E/A                       E
I've got another level that I want to clear
      Am            F7M/A
My skin feels like orange peel
  E/A             Am
My eyes have been vacuum-sealed
   Am                 F7M/A
My organs move like a squirm of eels
   E/A                        E
We should be more adventurous with our meals
 Am                F7M/A
They annoy me those who employ me
   E/A                   Am
They could destroy me They should enjoy me
   Am            F7M/A
We eat Chinese off our knees
   E/A                         E
And look for each other in the TV screen


CHORUS - 2x

   Am                           F
The sun goes up and the sun goes down
                       G
I drag myself into the town
                    Em       F
All I do I wanna to do with you
   Am             F
Everyday I'm at my desk
                      G
At my desk I'm like the rest
                 Em       F
All I do I wanna do with you


BRIDGE

Am   F7M/A   E/A   Am


VERSE

    Am                   F7M/A
On the city's skin they move on mass
  E/A                        Am
Like a rash on the back of a manky cat
    Am      F7M/A
Now in I go like a fool
  E/A                  E
I can't resist dipping in the pool
  Am                    F7M/A
I watch them watch me I watch them too
  E/A              Am
Across the street, across the room
   Am                 F7M/A
I dress myself like a charcoal sketch
   E/A                   E
My eyes are brown and my hair's a mess
 Am                F7M/A
They annoy me those who employ me
   E/A                   Am
They could destroy me They should enjoy me
   Am            F7M/A
We eat Chinese off our knees
   E/A                         E
And look for each other in the TV screen


CHORUS - 3x

   Am                           F
The sun goes up and the sun goes down
                       G
I drag myself into the town
                    Em       F
All I do I wanna to do with you
   Am             F
Everyday I'm at my desk
                      G
At my desk I'm like the rest
                 Em       F
All I do I wanna do with you


CHORUS - 2x (quietly)

    Am                            F
The cells I am at the moment will soon die
              G
But I will be here
        Em       F
Oh I'll still be here


CHORUS - 4x

   Am                           F
The sun goes up and the sun goes down
                       G
I drag myself into the town
                    Em       F
All I do I wanna to do with you
   Am             F
Everyday I'm at my desk
                      G
At my desk I'm like the rest
                 Em       F
All I do I wanna do with you


OUTRO (equals to CHORUS)

  Am                  F
Everyday, everyday, everyday, everyday,
  G                  Em        F
everyday, everyday, everyday, everyday, ...
Tap to rate this tab
# A B C D E F G H I J K L M N O P Q R S T U V W X Y Z