Song name
# A B C D E F G H I J K L M N O P Q R S T U V W X Y Z

The Shatterbrains - U Blow My Luv tab

THE SHATTERBRAINS
Window Shoppers
U BLOW MY LUV Intro 
Tabbed by Slixxs                                      Written by James Freimuth

1|---------------------------|------------------------------|
2|---------------------------|------------------------------|
3|------------7--------------|-------------0----------------|
4|-----11--------11----------|-------4--------4-------------|
5|---9-----9----------9------|----2-----2--------2----------|
6|-7---------------------7---|-0--------------------0-------|



1|---------------------------|------------------------------|
2|---------------------------|------------------------------|
3|------------7--------------|-------------0----------------|
4|-----11--------11----------|-------4--------4-------------|
5|---9-----9----------9------|----2-----2--------2----------|
6|-7---------------------7---|-0--------------------0-------|




1|---------------------------|---------------------------|
2|---------------------------|---------------------------|
3|----------------4----------|------------0--------------|
4|---------7--------7--------|-------4-------4-----------|
5|-----5-------5-------5-----|----2-----2-------2--------|
6|-3----------------------3--|--0------------------0-----|
http://www.reverbnation.com/theshatterbrains
Tap to rate this tab
 
# A B C D E F G H I J K L M N O P Q R S T U V W X Y Z